» » »

Session 0 Tabs (ver.1)

Artists:  A B C D E F G H I J K L M N O P Q R S T U V W X Y Z # 

Session 0 Tabs (ver.1)

Early November
Rating:
0/5 (0 votes)

Hard to play? Try these video lessons and learn fast.
                "(5)
just the background tune of track 12 on The Path. first time transcribing, let me know 
anything needs changing.

     |--3--|  |--3--|  |--3--|  |--3--|
     E  E  E  E  E  E  E  E  E  E  E  E
E||--------------------------------------|
B||--3--------0--------3--------0--------|
G||--------0-----0-----------0-----0-----|
D||-----0-----------0-----0-----------0--|
A||--------------------------------------|
E||--3-----------------3-----------------|

  |--3--|  |--3--|  |--3--|  |--3--|     |--3--|  |--3--|  |--3--|  |--3--|
  E  E  E  E  E  E  E  E  E  E  E  E     E  E  E  E  E  E  E  E  E  E  E  E
--------------------------------------|--0--------3-----------------3--------|
--3--------0--------3--1--0-----0-----|--------0-----0-----------0-----0-----|
--------0-----0--------------2-----0--|-----0-----------0-----0-----------0--|
-----0-----------0--------------------|--------------------------------------|
--------------------------------------|--3-----------------3-----------------|
--3-----------------3-----------------|--------------------------------------|


  |--3--|  |--3--|  |--3--|  |--3--|
  E  E  E  E  E  E  E  E  E  E  E  E
--0--------3--------5--------3--------||
--------0-----0--------0--------0-----||
-----0-----------0--------0--------0--||
--------------------------------------||
--3-----------------3-----------------||
--------------------------------------||
"            
Hard to play? Try these video lessons and learn fast. | Correct




comments powered by Disqus
↑ Back to top | Tablatures and chords are parodies/interpretations of the original songs. You may use it for private study, scholarship, research or language learning purposes only