» » »

Early November, Open Eyes Tabs (ver.5)

Artists:  A B C D E F G H I J K L M N O P Q R S T U V W X Y Z # 

Open Eyes Tabs (ver.5)

Early November Tabs
Rating:
0/5 (0 votes)
Open Eyes lessons Tabs too difficult? Try these video lessons and learn fast
                (Acoustic)
Tuning: standard

Great song, i hope ya got long fingers for this one ;)  This is the acoustic version.
It sounds ***ing sweet on the acoustic but it does sound absolutely fine on the
electric guitar aswell. Enjoy.

(PART A)
Intro: 
|--------------------------------------------
|--------------------------------------------
|-----7---------7-----7-------7-------7------
|---7---7---------7-----7---7---7---7---7----
|-5------------------------------------------
|---------5/-7------5------3-------3--------- X2

LISTEN TO THE SONG FOR THE STRUMMING

                      (PART B)
After Intro:      Verse: "Here we are, today"
         |------------------------------------------
         |------------------------------------------
         |-7------------7---7---7---7---7---7-------
         |-7------------7---7---7---7---7---7-------
         |-5------------5---5---0---5---0---5-------
         |-3----------------5---7---5---0---3-------

(PART C)            (PART D)
"So graceful..."   "I wish never...":
|--------------------------------------------
|--------------------------------------------
|-7---7---7----------------------------------
|-7---7---7----------------------------------
|-5---5---5---------------------------5--5---
|-----5---3---------------------------5--3---

(PART E)
"Here i am..."
|--------
|--------
|-7---7--
|-7---7--
|-5---5--
|-----3--

(PART F)
Bridge:
|------------
|------------
|-7---7---7--
|-7---7---7--
|-0---5---5--
|-7---5---3-- Repeat 4 Times

Order:

Part A
Part B
Part C
Part D
Part E
Part B (no vocals)
Part A (played once instead of twice)
Part B (played more softly)
Part C
Part F
Part D
Part E

Thats it, the whole song is there.  I know i play it correctly and i know this is right but if i've made
any typo's in the tab itself i haven't caught, or made a mistake in the order i placed it down i didnt catch
please let me know with the correction thing.  Again i say, listen to the song for the strumming and timing and have fun.
            
Submit corrections

comments powered by Disqus
↑ Back to top | Early November Tabs for Open Eyes. Lyrics for acoustic guitar and electric guitar. Tablatures and chords are parodies/interpretations of the original songs. You may use it for private study, scholarship, research or language learning purposes only