» » »

Early November, Never Coming Back Tabs (ver.1)

Artists:  A B C D E F G H I J K L M N O P Q R S T U V W X Y Z # 

Never Coming Back Tabs (ver.1)

Early November Tabs
 Rating:
4.6/5 (10 votes)
Never Coming Back lessons Tabs too difficult? Try these video lessons and learn fast
                			     NEVER COMING BACK - The Early November

Tuning: half step down

Intro x2
eb|---0--------0-------0-------0------0------0------0-------0-------------------|
Bb|----1--------1-------1-------1------1------1------1-------1------------------|
Gb|--0---0---0---0---0---0---0--0---0--0---0--0---0--0----0--0------------------|
Db|-----------------------------------------------------------------------------|
Ab|-3-------2-------0-----------------------------------------------------------|
Eb|-------------------------3-------1------0------1-------3---------------------|

(play after second time)
eb|---0-----0------0------0-----------------------------------------------------|
Bb|----1-----1------1------1----------------------------------------------------|
Gb|--0--0--0--0--0---0--0--0----------------------------------------------------|
Db|-----------------------------------------------------------------------------|
Ab|-----------------------------------------------------------------------------|
Eb|-3-----3-----3------3--------------------------------------------------------|

verse (same as intro)

Pre-Chorus x4
eb|---0-----0------0-------0-----0----0------0-----0----------------------------|
Bb|----1-----1------1-------1-----1----1------1-----1---------------------------|
Gb|--0--0--0--0--0---0---0--0--0--0--0--0--0--0--0--0---------------------------|
Db|-----------------------------------------------------------------------------|
Ab|-0-----2-----3---------------------------------------------------------------|
Eb|----------------------3-----1-----1-----1-----1------------------------------|

(play after 4th time)
eb|----0--------------------------------------------------------------------------|
Bb|-----1-------------------------------------------------------------------------|
Gb|---0--0------------------------------------------------------------------------|
Db|-------------------------------------------------------------------------------|
Ab|-------------------------------------------------------------------------------|
Eb|--3----------------------------------------------------------------------------|

Verse
Pre-chorus

Chorus/Outro x2 (chords)
eb|--3---8---8---8-------------------------------------------------------------|
Bb|--3---8---8---8-------------------------------------------------------------|
Gb|--0---0---0---0-------------------------------------------------------------|
Db|--2---7---7---7-------------------------------------------------------------|
Ab|--3---8---0---8-------------------------------------------------------------|
Eb|----------------------------------------------------------------------------|
            
Submit corrections

comments powered by Disqus
↑ Back to top | Early November Tabs for Never Coming Back. Lyrics for acoustic guitar and electric guitar. Tablatures and chords are parodies/interpretations of the original songs. You may use it for private study, scholarship, research or language learning purposes only