» » »

Mountain Range Tabs (ver.1)

Artists:  A B C D E F G H I J K L M N O P Q R S T U V W X Y Z # 

Mountain Range Tabs (ver.1)

Early November
Rating:
0/5 (0 votes)

Hard to play? Try these video lessons and learn fast.
                Intro
e--------------------------------------------------------------------------------
B-------------------------------------------------------------------------------
G------------------------------------------------------------------------------
D---------66--------66----------66--------------6---6---6-----------------Play 4x
A---66----44--66----44----66----44------66------4---4---4------------------------
E---44--------44----------44------------44-------------------------------------

End Into
e---------------------------------------------------------------------------------
B--------------------------------------------------------------------------------
G-------------------------------------------------------------------------Play 2x
D---------------------------------------6-let ring a little--------------------
A---6--------------6--------------------4---------------------2----------------
E---4-let ring-----4-let ring a little------------------------4-let ring-------

Its Never Been Harder To Fall........
e--------------------------------------------------------------------------
B--------------------------------------------------------------------------Play 2x
G---------------------------------------------------------------------------the go
D---6-----------------------------------------------------------------------back to
A---4x16------4---------6-----------4----------------------------------------intro
E-------------2x16------4x16--------2x16------------------------------------ 

That is basically the whole song 
Enjoy
-Jutt
            
Hard to play? Try these video lessons and learn fast. | Correct




comments powered by Disqus
↑ Back to top | Tablatures and chords are parodies/interpretations of the original songs. You may use it for private study, scholarship, research or language learning purposes only