» » »

Early November, Money In His Hand Bass tabs (ver.1)

Artists:  A B C D E F G H I J K L M N O P Q R S T U V W X Y Z # 

Money In His Hand Bass tabs (ver.1)

Early November Tabs
Rating:
1/5 (1 vote)
Money In His Hand lessons Tabs too difficult? Try these video lessons and learn fast
                

another one by the early november yeaaaaaaaaaaaaaaaaaaaaaaa



DROP D




intro:
guitar does a little intro of its own with the bass drum then we come in and we're like

g- --------------------| X4
d- --------------------|
a- -0030030------------|
e- --------5--5555555--|

g- --------------------|
d- --------------------|
a- --------------------|
e- -2--22-2-2-6666663--|


verse:

g- ---------------------------------| X2
d- ---------------------------------|
a- ---------------------------------|
e- -5-55-5-5-5-5-55-2-22-2-2-2-2-22-|

g- ---------------------------------| X2
d- ---------------------------------|
a- ---------------------------------|
e- -5-5555555555555-2-2222222222222-|


prechorus:

g- ------------------|
d- ------------------|
a- ------------------|
e- -2-22-2-2-2222222-|


chorus:
g- ------------------------------------------------------------------| X2
d- ------------------------------------------------------------------|
a- ------------------------------------------------------------------|
e- -7-77-7-7-7-7-77-6-66-6-6-6-6-67-5-55-5-5-5-5-556-4-44-4-4-4-4-45-|


post chorus:

g- --------------------|
d- --------------------|
a- --------------------|
e- -2--22-2-2-6666663--|


verse:


g- ---------------------------------| X2
d- ---------------------------------|
a- ---------------------------------|
e- -5-55-5-5-5-5-55-2-22-2-2-2-2-22-|

g- -----------------------------------| X2
d- -----------------------------------|
a- -----------------------------------|
e- -5-5555---5-555502-2222---2-22220--|


prechorus:

g- ------------------|
d- ------------------|
a- ------------------|
e- -2-22-2-2-2222222-|


chorus:
g- ------------------------------------------------------------------| X2
d- ------------------------------------------------------------------|
a- ------------------------------------------------------------------|
e- -7-77-7-7-7-7-77-6-66-6-6-6-6-67-5-55-5-5-5-5-556-4-44-4-4-4-4-45-|


bridge:
(2's are played lighter than 0's)

g- --------------------|
d- --------------------|
a- --------------------|
e- -22--0~--022-0~-----|

g- --------------------| X3
d- --------------------|
a- -0030030------------|
e- --------5--5555555--|

g- --------------------|
d- --------------------|
a- --------------------|
e- -7~---------------X-|


chorus:
g- ------------------------------------------------------------------| X2
d- ------------------------------------------------------------------|
a- ------------------------------------------------------------------|
e- -7-77-7-7-7-7-77-6-66-6-6-6-6-67-5-55-5-5-5-5-556-4-44-4-4-4-4-45-|


outro:
g- --------------------| X4
d- --------------------|
a- -0030030------------|
e- --------5--5555555--|   (on the last time around let the five ring)

g- --------------------|
d- --------------------|
a- --------------------|
e- -5\-----------------|   (slide out downward)


thanks
            
Submit corrections

comments powered by Disqus
↑ Back to top | Early November Bass for Money In His Hand. Lyrics for acoustic guitar and electric guitar. Tablatures and chords are parodies/interpretations of the original songs. You may use it for private study, scholarship, research or language learning purposes only