» » »

Early November, Money In His Hand Tabs (ver.2)

Artists:  A B C D E F G H I J K L M N O P Q R S T U V W X Y Z # 

Money In His Hand Tabs (ver.2)

Early November Tabs
Rating:
5/5 (1 vote)
Money In His Hand lessons Tabs too difficult? Try these video lessons and learn fast
                Intro:
eb|--0~~------------------------------------------------------------------|
Bb|--0~~------------------------------------------------------------------|
Gb|--0~~------------------------------------------------------------------|
Db|--0~~2-2-2-2-2-2-2-5-2-2-2-2-2-2-2-5---x3-2-2-2--2-2--6-6-6--6-6-------|
Ab|--0~~0-0h3p0-0h3p0-5-0-0h3p0-0h3p0-5------2-2-2--2-2--6-6-6--6-6-------|
Db|--0~~--------------5---------------5------2-2-2--2-2--6-6-6--6-6-------|

Verse:
eb|------------------------------------------------------------------------|
Bb|------------------------------------------------------------------------|
Gb|------------------------------------------------------------------------|
Db|--5-5-5-5-5-5-5-2-2-2-2-2-2-2-2--5-5-5-5-5-5-5-2-2-2-2-2-2-2-2----------|
Ab|--5-5-5-5-5-5-5-2-2-2-2-2-2-2-2--5-5-5-5-5-5-5-2-2-2-2-2-2-2-2----------|
Db|--5-5-5-5-5-5-5-2-2-2-2-2-2-2-2--5-5-5-5-5-5-5-2-2-2-2-2-2-2-2----------|

eb|------------------------------------------------------------------------|
Bb|------------------------------------------------------------------------|
Gb|------------------------------------------------------------------------|
Db|--5-5-5-5-5-5-5-2-2-2-2-2-2-2-2--5-5-5-5-5-5-5-2-2-2-2-2-2-2-2--6-6-6-7-|
Ab|--5-5-5-5-5-5-5-2-2-2-2-2-2-2-2--5-5-5-5-5-5-5-2-2-2-2-2-2-2-2--6-6-6-7-|
Db|--5-5-5-5-5-5-5-2-2-2-2-2-2-2-2--5-5-5-5-5-5-5-2-2-2-2-2-2-2-2--6-6-6-7-|
    pm............   .............    ...........   .............

Chorus:
[guitar 1]
eb|------------------------------------------------------------------------|
Bb|------------------------------------------------------------------------|
Gb|--------------x-x-x-x-x-x-----------------------------------------------|
Db|-7-7-7-7-7-7--6-6-6-6-6-6--7-7-7-7-7-7--4-4-4-4-4-4---------------------|
Ab|-7-7-7-7-7-7--7-7-7-7-7-7--5-5-5-5-5-5--4-4-4-4-4-4---------------------|
Db|-7-7-7-7-7-7--6-6-6-6-6-6--5-5-5-5-5-5--4-4-4-4-4-4---------------------|

[guitar 2]
eb|----9-------9--------12-9----12-9-----7-10-9-7------|
Bb|-10---12-10---12--10------10-------10----------10---|
Gb|----------------------------------------------------|
Db|----------------------------------------------------|
Ab|----------------------------------------------------|
Db|----------------------------------------------------|
[sorry if this isn't correct, it's extremely hard to hear the notes]

Bridge:
[guitar 1]
eb|--0~~---------------------------------------|
Bb|--0~~---------------------------------------|
Gb|--0~~---------------------------------------|
Db|--0~~2-2-2-2-2-2-2-5-2-2-2-2-2-2-2-5---x3-7-|
Ab|--0~~0-0h3p0-0h3p0-5-0-0h3p0-0h3p0-5------7-|
Db|--0~~--------------5---------------5------7-|

[guitar 2]
eb|-12^-15^-17^---------------------------|
Bb|-12^-13^-15^---------------------------|
Gb|------------4/5\4-4------14-16-17-19---|
Db|--------------------7-5--x--x--x--x----|
Ab|-------------------------12-14-15-17---|
Db|---------------------------------------|
bend all the first notes up then back down
            

comments powered by Disqus
↑ Back to top | Early November Tabs for Money In His Hand. Lyrics for acoustic guitar and electric guitar. Tablatures and chords are parodies/interpretations of the original songs. You may use it for private study, scholarship, research or language learning purposes only