» » »

Early November, Just Enough Tabs (ver.2)

Artists:  A B C D E F G H I J K L M N O P Q R S T U V W X Y Z # 

Just Enough Tabs (ver.2)

Early November Tabs
 Rating:
4/5 (4 votes)
Just Enough lessons Tabs too difficult? Try these video lessons and learn fast
1
                (Acoustic)

This is a great song by an even better band. I took it from the 
video performance on the Drive-Thru Records DVD of Ace playing
Just Enough in his basement. This is my first tab, please send me

This song can be played either standard tuning OR
tuned a half step down to (high to low):
Eb
Bb
Gb
Db
Ab
Eb

Ace uses an acoustic guitar when playing this song.

/ - slide up
\ - slide down
x - muted, struck string
* - palm mute

Listen to the song for the strumming patterns.




Verse:

Eb----------------------------------------------------------------
Bb----------------------------------------------------------------
Gb-----------8-8-------------8-8----------------------------------
Db-------9-9-----9-9-----9-9-----9-9------------------------------
Ab---7-7-------------7-7------------------------------------------
Eb----------------------------------------------------------------




Eb----------------------------------------------------------------
Bb----------------------------------------------------------------
Gb-----------8-8-------------8-8----------------------------------
Db-------9-9-----9-9-----9-9-----9-9------------------------------
Ab---0-0-------------0-0------------------------------------------
Eb----------------------------------------------------------------


Prechorus:

Eb----------------------------------------------------------------
Bb----------------------------------------------------------------
Gb---88888----9999------------------------------------------------
Db---99999----9999------------------------------------------------
Ab----------------------------------------------------------------
Eb----------------------------------------------------------------


1st Chorus:

Eb----------------------------------------------------------------
Bb----------------------------------------------------------------
Gb---9---99--9---99----9-9-9-9-9999999----------------------------
Db---9---99--9---99----9-9-9-9-9999999----------------------------
Ab---------------------7-7-7-7-7777777----------------------------
Eb---7/9-99--7/9-99----5-5-5-5-5555555----------------------------




Eb----------------------------------------------------------------
Bb----------------------------------------------------------------
Gb---999999999--99-999999999999999999999999-----------------------
Db---999999999--99-999999999999999999999999-----------------------
Ab---777777777--66-777777777777777777777777-----------------------
Eb-----------------555555555555555555555555-----------------------




Eb----------------------------------------------------------------
Bb----------------------------------------------------------------
Gb---9---99--9---99----9-9-9-9-9999999----------------------------
Db---9---99--9---99----9-9-9-9-9999999----------------------------
Ab---------------------7-7-7-7-7777777----------------------------
Eb---7/9-99--7/9-99----5-5-5-5-5555555----------------------------




Eb----------------------------------------------------------------
Bb----------------------------------------------------------------
Gb---999999999--99-999999999999999999999999-----------------------
Db---999999999--99-999999999999999999999999-----------------------
Ab---777777777--66-777777777777777777777777-----------------------
Eb-----------------555555555555555555555555-----------------------


Post Chorus:

Eb----------------------------------------------------------------
Bb----------------------------------------------------------------
Gb---98888888888888888-89999999999999999--8-------------9\--------
Db---99999999999999999-99999999999999999--9--let ring---9\--------
Ab----------------------------------------------------------------
Eb----------------------------------------------------------------


2nd Chorus:

Eb----------------------------------------------------------------
Bb----------------------------------------------------------------
Gb---9---99--9---99----9-9-9-9-9999999----------------------------
Db---9---99--9---99----9-9-9-9-9999999----------------------------
Ab---------------------7-7-7-7-7777777----------------------------
Eb---7/9-99--7/9-99----5-5-5-5-5555555----------------------------




Eb----------------------------------------------------------------
Bb----------------------------------------------------------------
Gb---999999999--99-999999999999999999999999-----------------------
Db---999999999--99-999999999999999999999999-----------------------
Ab---777777777--66-777777777777777777777777-----------------------
Eb-----------------555555555555555555555555-----------------------



Eb----------------------------------------------------------------
Bb----------------------------------------------------------------
Gb---9---99--9---99----9-9-9-9-9999999----------------------------
Db---9---99--9---99----9-9-9-9-9999999----------------------------
Ab---------------------7-7-7-7-7777777----------------------------
Eb---7/9-99--7/9-99----5-5-5-5-5555555----------------------------




Eb----------------------------------------------------------------
Bb----------------------------------------------------------------
Gb---999999999--99-999999999999999999999999-----------------------
Db---999999999--99-999999999999999999999999-----------------------
Ab---777777777--66-777777777777777777777777-----------------------
Eb-----------------555555555555555555555555-----------------------




Eb----------------------------------------------------------------
Bb----------------------------------------------------------------
Gb---999999999999--999999999999--9-9-9-9--9-9-9-9--999999999999---
Db---999999999999--999999999999--9-9-9-9--9-9-9-9--999999999999---
Ab---777777777777----------------------------------777777777777---
Eb---555555555555--777777777777--9-9-9-9--7-7-7-7--555555555555---




Eb----------------------------------------------------------------
Bb----------------------------------------------------------------
Gb---999999999999--999999999999--9-9-9-9--9-9-9-9--999999999999---
Db---999999999999--999999999999--9-9-9-9--9-9-9-9--999999999999---
Ab---777777777777----------------------------------777777777777---
Eb---555555555555--777777777777--9-9-9-9--7-7-7-7--555555555555---


Bridge (the strumming pattern is the following repeated several 
         times, just listen to the song for the rhtyhm)

Eb----------------------------------------------------------------
Bb----------------------------------------------------------------
Gb----8888888--99999999--88888888--99999999-----------------------
Db----9999999--99999999--99999999--99999999-----------------------
Ab----------------------------------------------------------------
Eb----------------------------------------------------------------
      *******  ********  ********  ********

Outro:

Eb----------------------------------------------------------------
Bb----------------------------------------------------------------
Gb---999999999--99-999999999999999999999999-----------------------
Db---999999999--99-999999999999999999999999-----------------------
Ab---777777777--66-777777777777777777777777-----------------------
Eb-----------------555555555555555555555555-----------------------




Eb----------------------------------------------------------------
Bb----------------------------------------------------------------
Gb---9999999999999999--9999999999999999---------------------------
Db---9999999999999999--9999999999999999---------------------------
Ab---------------------7777777777777777---------------------------
Eb---7777777777777777--5555555555555555---------------------------




Eb----------------------------------------------------------------
Bb----------------------------------------------------------------
Gb---999999999--99-999999999999999999999999-----------------------
Db---999999999--99-999999999999999999999999-----------------------
Ab---777777777--66-777777777777777777777777-----------------------
Eb-----------------555555555555555555555555-----------------------




Eb----------------------------------------------------------------
Bb----------------------------------------------------------------
Gb---9999999999999999--9999-xx-9999-------------------------------
Db---9999999999999999--9999-xx-9999-------------------------------
Ab---------------------7777-xx-7777-------------------------------
Eb---7777777777777777--5555-xx-5555-------------------------------




Eb----------------------------------------------------------------
Bb----------------------------------------------------------------
Gb---999999999--99-999999999999999999999999-----------------------
Db---999999999--99-999999999999999999999999-----------------------
Ab---777777777--66-777777777777777777777777-----------------------
Eb-----------------555555555555555555555555-----------------------




Eb----------------------------------------------------------------
Bb----------------------------------------------------------------
Gb---9999999999999999--9999-xx-9999------1------------------------
Db---9999999999999999--9999-xx-9999------2------------------------
Ab---------------------7777-xx-7777------2--let ring--------------
Eb---7777777777777777--5555-xx-5555-------------------------------



Order:

Verse x5
Prechorus
1st Chorus
Post Chorus
Verse x6
Prechorus
2nd Chorus
Bridge
Outro
            
Submit corrections

comments powered by Disqus
↑ Back to top | Early November Tabs for Just Enough. Lyrics for acoustic guitar and electric guitar. 1 Tablatures and chords are parodies/interpretations of the original songs. You may use it for private study, scholarship, research or language learning purposes only