» » »

Early November, Is It My Fault? Tabs (ver.2)

Artists:  A B C D E F G H I J K L M N O P Q R S T U V W X Y Z # 

Is It My Fault? Tabs (ver.2)

Early November Tabs
Rating:
0/5 (0 votes)
Hard to play? Try these video lessons and learn fast.
                Verse (1st time only)
------------------------------------------------|
------------------------------------------------|
------------------------------------------------|
--9-7-5-555-3-7---------------------------------|
--9-7-5-555-3-7---------------------------------|
--7-5-3-333-1-5---------------------------------|

Verse (every other time)
------------------|------------------------------|
------------------|------------------------------|
------------------|------------------------------|
--7h9-7-5-555-3-7-|-5~---------------------------|
--7h9-7-5-555-3-7-|-5~---------------------------|
--7---7-3-333-3-5-|-3~---------------------------|

Chorus
------------------------------------------------|
------------------------------------------------|
------------------------------------------------|
--9999-5555-7777-7-7-7777-----------------------|
--9999-5555-7777-7-7-7777-----------------------|
--7777-3333-5555-5-5-5555-----------------------|

Interlude
------------------------------------------------|
------------------------------------------------|
------------------------------------------------|
--55555555-77777777-----------------------------|
--55555555-77777777-----------------------------|
--33333333-55555555-----------------------------|

sorry but i haven't tabbed the cool slide guitar riffs in this song
            

comments powered by Disqus
↑ Back to top | Early November Tabs for Is It My Fault?. Lyrics for acoustic guitar and electric guitar. Tablatures and chords are parodies/interpretations of the original songs. You may use it for private study, scholarship, research or language learning purposes only