» » »

Hair Bass tabs (ver.1)

Artists:  A B C D E F G H I J K L M N O P Q R S T U V W X Y Z # 

Hair Bass tabs (ver.1)

Early November
Rating:
2/5 (1 vote)

Hard to play? Try these video lessons and learn fast.
                
yayyyyyyyyyyy this song is tight and this band rocks even more than the song does. 
who is checkin out this tab right now knows it too.


DROP D


VERSE:
guitar plays first two chords 8 times each then you come in with the bass

g- --------------------------------------------------------------------|
d- --------------------------------------------------------------------|
a- -----------------7-7-7-7-7-7-7-7-6-6-6-6-6-6-6-6--------------------|
e- -5-5-5-5-5-5-5-5---------------------------------5-5-5-5-5-5-5------|


CHORUS:

g- --------------------------------------------------------------------|
d- --------------------------------------------------------------------|
a- -7-7-777-77-7777-9-9-999-99-9999------------------------------------|
e- ---------------------------------9-x-7-x-5~-------------------------|

g- --------------------------------------------------------------------| X2
d- --------------------------------------------------------------------|
a- -7-7-777-77-7777-9-9-999-99-9999------------------------------------|
e- ---------------------------------9-9-9-9-9-9-9-9-5-5-5-5-7-7-7------|


VERSE:

g- ----------------------------------------------------|
d- ----------------------------------------------------|
a- -7-7-7-7-7-7-7-7-6-6-6-6-6-6-6-6--------------------|
e- ---------------------------------5-5-5-5-5-5-5-5----|

g- ----------------------------------------------------|
d- ----------------------------------------------------|
a- -7-7-7-7-7-7-7-7-6-6-6-6-6-6-6-6--------------------|
e- ---------------------------------5-5-5-5-5-5-5------|


CHORUS:

g- --------------------------------------------------------------------|
d- --------------------------------------------------------------------|
a- -7-7-777-77-7777-9-9-999-99-9999------------------------------------|
e- ---------------------------------9-x-7-x-5~-------------------------|

g- --------------------------------------------------------------------| X2
d- --------------------------------------------------------------------|
a- -7-7-777-77-7777-9-9-999-99-9999------------------------------------|
e- ---------------------------------9-9-9-9-9-9-9-9-5-5-5-5-7-7-7------|

BRIDGE:

g- ----------------------------------------------------|
d- ----------------------------------------------------|
a- -7-7-7-7-7-7-7-7-6-6-6-6-6-6-6-6--------------------|
e- ---------------------------------5-5-5-5-5-5-5-5----|

g- ----------------------------------------------------|
d- ----------------------------------------------------|
a- -7-7-7-7-7-7-7-7-6-6-6-6-6-6-6-6-6-6-6-6-6----------|
e- ----------------------------------------------------|

CHORUS:

g- --------------------------------------------------------------------|
d- --------------------------------------------------------------------|
a- -7-7-777-77-7777-9-9-999-99-9999------------------------------------|
e- ---------------------------------9-x-7-x-5~-------------------------|

g- --------------------------------------------------------------------| X2
d- --------------------------------------------------------------------|
a- -7-7-777-77-7777-9-9-999-99-9999------------------------------------|
e- ---------------------------------9-9-9-9-9-9-9-9-5-5-5-5-7-7-7------|


OUTRO:

g- ----------------------------------------------------|
d- ----------------------------------------------------|
a- -7-7-7-7-7-7-7-7-6-6-6-6-6-6-6-6--------------------|
e- ---------------------------------5-5-5-5-5-5-5------|

woo
            
Hard to play? Try these video lessons and learn fast. | Correct




comments powered by Disqus
↑ Back to top | Tablatures and chords are parodies/interpretations of the original songs. You may use it for private study, scholarship, research or language learning purposes only