» » »

Early November, Five Years Tabs (ver.1)

Artists:  A B C D E F G H I J K L M N O P Q R S T U V W X Y Z # 

Five Years Tabs (ver.1)

Early November Tabs
 Rating:
4.4/5 (7 votes)
Five Years lessons Tabs too difficult? Try these video lessons and learn fast
1
                Tuning: Standard half-step down (Eb, Ab, Db, Gb, Bb, Eb)

---3--3--5--5--7--7--7--7--7--5--3--2--X--X--X----X--X--------|
---3--3--3--3--0--0--0--0--0--0--3--3--3--3--3----3--3--------|
---0--0--2--2--0--0--0--0--0--0--0--2--0--0--0----0--0--------|
---2--2--0--0--0--0--0--0--0--0--2--0--X--X--X----X--X--------|
---2--2--X--X--X--X--X--X--X--X--2--X--3--3--3----3--3--------|
---0--0--X--X--3--3--3--3--3--3--0--X--X--X--X----X--X--------|

       "Try and pretend...."
---3--------3--------3--------3--------3--------3-------------|
---3--------3--------3--------3--------3--------3-------------|
---0--------2--------0--------0--------2--------0-------------|
---2--------0--------0--------2--------0--------X-------------|
---2--------X--------X--------2--------X--------3-------------|
---0--------X--------3--------0--------X--------X-------------|

 "Do you think that...."
---3----3----3----3----3----3-----3-3-3---3---3-3-3---3---3-3-3---|
---3----3----3----3----3----3-----3-3-3---3---3-3-3---3---3-3-3---|
---0----2----0----0----0----2-----0-0-0---0---0-0-0---0---0-0-0---|
---2----0----0----X----2----0-----X-X-X---X---X-X-X---X---X-X-X---|
---2----X----X----3----2----X-----3-3-3---3---3-3-3---3---3-3-3---|
---0----X----3----0----0----X-----X-X-X---X---X-X-X---X---X-X-X---|

------------------------|
------------------------|
------------------------|
----0-0---2>0-----------|
--0-----0-----0---------|
------------------------|

"I'm finally at the place....".."You know.."
--3------3------3-------3--------3-----3-----3-----3-----3-----3-3-3---3---3-3-3------|
--3------3------3-------3--------3-----3-----3-----3-----3-----3-3-3---3---3-3-3------|
--0------0------0-------0--------0-----0-----0-----0-----2-----0-0-0---0---0-0-0------|
--0------0------X-------X--------2-----2-----2-----2-----0-----X-X-X---X---X-X-X------|
--X------X------3-------3--------2-----2-----2-----2-----X-----3-3-3---3---3-3-3------|
--3------3------X-------X--------0-----0-----0-----0-----X-----X-X-X---X---X-X-X------|


I didn't do the rest of the song cuz it's pretty much the same as above. It's all basic 
C, Em, D chords besides the intro/outro riff.

I realize this is not how it's played in the full-band song. But, this is a comprable 
version that I came up with.
            
Submit corrections

comments powered by Disqus
↑ Back to top | Early November Tabs for Five Years. Lyrics for acoustic guitar and electric guitar. 1 Tablatures and chords are parodies/interpretations of the original songs. You may use it for private study, scholarship, research or language learning purposes only