» » »

Figure It Out Tabs (ver.3)

Artists:  A B C D E F G H I J K L M N O P Q R S T U V W X Y Z # 

Figure It Out Tabs (ver.3)

Early November
Rating:
0/5 (0 votes)

Hard to play? Try these video lessons and learn fast.
                
Here's my tab for the song "figure it out". The tuning is Standard, half step down.
You can listen to the song for the timing and sequence.
If you have any question, just feel free to ask.  eNJOY!!!!!


D#|-------------------|
A#|--7---10--0---0----|
F#|--7---9---2---4----|
C#|--0---0---0---0----|
G#|--X---X---X---X----|
D#|--7---9---2---3----|


D#|---5P2--0------------0----------------0-------------------|
A#|----------3-0----0--------------7-------7--------10-------|
F#|-------------------7---7-6-4------7----------9------9-----|
C#|------------------------------------0-----------------0---|
G#|----------------------------------------------------------|
D#|-3----3--------5--------------7------------9---9----------|


D#|-------------------|
A#|--0---0---7---10---|
F#|--4---6---7---9----|
C#|--0---0---0---0----|
G#|--X---X---X---X----|
D#|--3---5---7---9----|
            
Hard to play? Try these video lessons and learn fast. | Correct




comments powered by Disqus
↑ Back to top | Tablatures and chords are parodies/interpretations of the original songs. You may use it for private study, scholarship, research or language learning purposes only