» » »

Early November, Every Night's Another Story Tabs (ver.5)

Artists:  A B C D E F G H I J K L M N O P Q R S T U V W X Y Z # 

Every Night's Another Story Tabs (ver.5)

Early November Tabs
Rating:
0/5 (0 votes)
Hard to play? Try these video lessons and learn fast.
                -------------------------------------------------------------------------------                 
-------------------------------------------------------------------------------

Tuning:From Low to High ---> Db, Gb, B, E, Ab, Db (One and a half way down)


Intro: 1 guitar or both...
Db|---------------------------------------------------------------------------|
Ab|---------------------------------------------------------------------------|
E |-12h-12h-12-12-12-12-12h-12h-12-12-12-12--5-5-5-5-5-5-5-5------------------|
B |-12h-12h-12-12-12-12-12h-12h-12-12-12-12--5-5-5-5-5-5-5-5------------------|
Gb|-10h-10h-10-10-10-10-10h-10h-10-10-10-10--3-3-3-3-3-3-3-3------------------|
Db|---------------------------------------------------------------------------|

Intro 2: Guitar 1(Rhythm)
Db|---------------------------------------------------------------------------|
Ab|---------------------------------------------------------------------------|
E |-------------------5-5-5-5-5-5-5-5-----------------------------------------|
B |-xx-2-2-2-2-2-2-2--5-5-5-5-5-5-5-5--2-2-2-2-2-2-2-2------------------------|
Gb|-xx-2-2-2-2-2-2-2--3-3-3-3-3-3-3-3--2-2-2-2-2-2-2-2------------------------|
Db|-xx-0-0-0-0-0-0-0-------------------0-0-0-0-0-0-0-0------------------------|

Intro 2: Guitar 2(Lead)
Db|---------------------------------------------------------------------------|
Ab|---------------------------------------------------------------------------|
E |-------------------5-5-5-5-5-5-5-5-----------------------------------------|
B |-xx-2-2-2-2-2-2-2--5-5-5-5-5-5-5-5-----------------------------------------|
Gb|-xx-2-2-2-2-2-2-2--3-3-3-3-3-3-3-3—-7-7-7-9-9-9-10-10-10-10-10-10-10-10-9--|
Db|-xx-0-0-0-0-0-0-0----------------------------------------------------------|

Verse: Guitar 1 (Rhythm)
Db|---------------------------------------------------------------------------|
Ab|---------------------------------------------------------------------------|
E |-5x5x-5-5x5x-5-5x5x-5-5x5x-5-----------------------------------------------|
B |-5x5x-5-5x5x-5-5x5x-5-5x5x-5--2x2x-2-2x2x-2-2x2x-2-2x2x-2------------------|(2x)
Gb|-3x3x-3-3x3x-3-3x3x-3-3x3x-3--2x2x-2-2x2x-2-2x2x-2-2x2x-2------------------|
Db|------------------------------0x0x-0-0x0x-0-0x0x-0-0x0x-0------------------|

Verse: Guitar 2 (Lead)
Db|---------------------------------------------------------------------------|
Ab|-8p7-8p7-8p7-8p7-8p7-8p7-8p7-8p7-(Until the chorus)------------------------|
E |---------------------------------------------------------------------------|
B |---------------------------------------------------------------------------|
Gb|---------------------------------------------------------------------------|
Db|---------------------------------------------------------------------------|

Chorus: Both guitars
Db|---------------------------------------------------------------------------|
Ab|---------------------------------------------------------------------------|
E |-5-5-5-5-5-5-5-5-------------------5-5-5-5-5-5-5-5--7-7-7-7-7-7-7-7--------|
B |-5-5-5-5-5-5-5-5--2-2-2-2-2-2-2-2--5-5-5-5-5-5-5-5—-7-7-7-7-7-7-7-7--------|(2x)
Gb|-3-3-3-3-3-3-3-3--2-2-2-2-2-2-2-2--3-3-3-3-3-3-3-3--5-5-5-5-5-5-5-5--------|
Db|------------------0-0-0-0-0-0-0-0------------------------------------------|

Bridge/Interlude: Both guitars
Db|---------------------------------------------------------------------------|
Ab|---------------------------------------------------------------------------|
E |-5---------------------------5---------------------------------------------|
B |-5------------x-2------------5------------xx-2-----------------------------|
Gb|-3-(let ring)-x-2------------3-(let ring)-xx-2-----------------------------|
Db|--------------x-0-(let ring)--------------xx-0-(let ring)------------------|




Outro: Both guitars
Db|---------------------------------------------------------------------------|
Ab|---------------------------------------------------------------------------|
E |-5-5-5-5-5-5-5-5-------------------5-5-5-5-5-5-5-5-------------------------|
B |-5-5-5-5-5-5-5-5--2-2-2-2-2-2-2-2--5-5-5-5-5-5-5-5--2-2-2-2-2-2-2-2--------|(2x)
Gb|-3-3-3-3-3-3-3-3--2-2-2-2-2-2-2-2--3-3-3-3-3-3-3-3--2-2-2-2-2-2-2-2--------|
Db|------------------0-0-0-0-0-0-0-0-------------------0-0-0-0-0-0-0-0--------|



Listen to the sing and you'll wont need any help with it, I think. I'm not 100%
sure about the intro, so, I think it supposed to be like that, but if you have
a better intro, please let me know... Have fun... 


| /  slide up
| \  slide down
| h  hammer-on
| p  pull-off
| ~  vibrato
| +  harmonic
| x  Mute note
===============================================================================
            

comments powered by Disqus
↑ Back to top | Early November Tabs for Every Night's Another Story. Lyrics for acoustic guitar and electric guitar. Tablatures and chords are parodies/interpretations of the original songs. You may use it for private study, scholarship, research or language learning purposes only