>
 >
Everynights Another Story 1

Everynights Another Story 1 Guitar Tabs

Early November - Everynights Another Story 1 chords, tabs, tablatures, lyrics

Guitar lessons | Add/correct | Request | Top 50 tabs Artists:  A B C D E F G H I J K L M N O P Q R S T U V W X Y Z 0-9

Everynights Another Story 1 Guitar Tabs – Early November

CD, Sheet music, Poster

Do you like Everynights Another Story 1? Share with your friends now
Bass TabsTabsTabs v2Tabs v3Tabs v4
This is the most correct version u can get on the internet. Its how they played it live.
its not a hard song just listen to the cd and youll get it. 

DROP D TUNING.
X-Mute Strings after strumming.
.=Palm Mute

INTRO Both Guitars-Feedback
e|------------------------|
B|------------------------|
G|-10x-10x-10-10-10-10-10-|
D|-10x-10x-10-10-10-10-10-|
A|-8x--8x--8--8--8--8--8--|
D|-8x--8x--8--8--8--8--8--|...Pickscrape
2nd Part of INTRO
|----------------------|(2x)
|----------------------|
|-10-(8x)------10-(8x)-|
|-10-----------10------|
|-8------0--0--0-------|
|-8------0--0--0-------|
         .  .
At the end of the intro guitar 2 does
|------------|
|------------|
|10-12-14-12-|
|------------|
|8--10-12-10-| 
|------------|

VERSE- Guitar 1                    This is right before the chorus
|----------------------------|(4x) |----|
|----------------------------|     |----|
|-10-10-10-(4x)-10-10-10-(4x)|     |----|
|-10-10-10------10-10-10-----|     |-10-|
|-8--8--8-------0--0--0------|     |-10-|
|-8--8--8-------0--0--0------|     |-10-|
  .  .          .  .
Verse- Guitar 2
Do the same thing as Guitar 1 for the first half of the verse, then do
|------------------|(its not hard. just keep your pointer finger on 9 and
|------------------| your middle finger taps on and off the the 10)
|-9h10p9h10p9h10p9-|
|------------------|
|------------------|
|------------------|
Listen to see how many time your do it.


Chorus ("Breathe in deep, let it out slow") When he goes "its all my fault"
|---------------------|(4x)                 Guitar2  does this.
|---------------------|                     |-------|
|-10-(8x)-----10-(8x)-|                     |-------|
|-10----------10------|                     |-10-12-|
|-8-------0-0-0-------|                     |-------|
|-8-------0-0-0-------|                     |-8--10-|
          . .                               |-------|
BREAK DOWN Both guitars
|------------------------------------|
|------------------------------------|
|-10~---------10~----10~---------10~-|
|-10~---------10~----10~---------10~-|
|-8~--------0-0~-----8~----------0~--|
|-8~--------0-0~-----8~------0-0-0~--|
            .                . .
"Breathe in deep...
|---------|
|---------|
|-10------|
|-10------|
|-8-----0-|
|-8-----0-|
  pm.....
"GO! GO! GO!"
|----|
|----|
|-12-|
|-10-|
|-10-|
|-10-|

Then the chorus more times till the end. everytime he says GO GO GO you do
 "GO! GO! GO!"
|----|           Guitar 1 does that ..guitar 2 does this when he says go go
|----|                         |-------------|
|-12-|                         |-------------|
|-10-|                         |-10-12-14-12-|
|-10-|End on that.             |-------------|
|-10-|                         |-8--10-12-10-|
Finished. The End. Bye.        |-------------|





Comments


Popular Early November tabs & chords
All We Ever Needed 1 Bass Tabs
Dinner At The Money Table Chords
Exchanging Two-hundred Chords
From Here To La Chords
My Sleep Pattern Changed Tabs
Sesame Smeshame 1 Tabs
Sunday Drive 2 Tabs
Tell Me Why Tabs
I Want To Hear You Sad Ukulele
Little Black Heart Ukulele


Song lyrics



↑ Back to top | Tablatures and chords are parodies/interpretations of the original songs. You may use it for private study, scholarship, research or language learning purposes only
© 2014 AZChords.com Contact us | Privacy policy | DMCA | Add/correct tabs | Request tabs | Top 50 tabs