» » »

Baby Blue Tabs (ver.2)

Artists:  A B C D E F G H I J K L M N O P Q R S T U V W X Y Z # 

Baby Blue Tabs (ver.2)

Early November
Rating:
4/5 (7 votes)

Hard to play? Try these video lessons and learn fast.
                ok, i tabbed out "Ever So Sweet" (ver. 2) for all of you, so now i guess ill post
up "Baby Blue". this right. i saw them in concert on the DTR tour at the Hartford
Stop. Unbelievable Show...

yet again, you should be able to figure out the strumming patterns..
and this is in "Dropped D" tuning.

<--------------------------------------------------------> slight distortion
<--------------------------------------------------------> but with a clean
<--------------------------------------------------------> feel...
<--4---4------------------------------------------------->
<--1---2------------------------------------------------->
<------2------------------------------------------------->

you use that riff for the verse too.. but then for the chorus...

<--------------------------------------------------------> 
<--------------------------------------------------------> 
<--------------------------------------------------------> 
<---6---~-1h2---4-4-4-0-4-0---2-2-2-0-2-0---------------->
<---6---~-1h2---4-4-4-0-4-0---2-2-2-0-2-0---------------->
<---6---~-1h2---4-4-4-0-4-0---2-2-2-0-2-0---------------->

after the first chorus Ace plays:

<------------------------------------L-------------------> 
<------------------------------------E-------------------> 
<-----------4-4---------4-4----~-----T--R----------------> 
<-------3-3----3-3---3-3---3-3-~--4-----I----------------> 
<---1-1-----------1-1----------~--2-----N----------------> 
<------------------------------~--2-----G---------------->

THEN on the outro:
this is the lead
<--------------------------------------------------------> 
<-------------7----------------------7--9--7-------------> 
<-----4--6--4---8--6--8------4--6--4--------------------->
<--------------------------------------------------------> 
<--------------------------------------------------------> 
<-------------------------------------------------------->

THIS is the rythm:

<------------------------E--------------------------------> 
<------------------------N--------------------------------> 
<------------------------D--W----------------------------->
<-----6----4----4-----------I------4~~~-------------------> 
<-----6----4----2-----------T------2~~~-------------------> 
<-----6----4----2-----------H------2~~~------------------->

tabs you might want. Have fun
            
Hard to play? Try these video lessons and learn fast. | Correct




comments powered by Disqus
↑ Back to top | Tablatures and chords are parodies/interpretations of the original songs. You may use it for private study, scholarship, research or language learning purposes only