» » »

Early November, Baby Blue Tabs (ver.1)

Artists:  A B C D E F G H I J K L M N O P Q R S T U V W X Y Z # 

Baby Blue Tabs (ver.1)

Early November Tabs
Rating:
3/5 (6 votes)
Baby Blue lessons Tabs too difficult? Try these video lessons and learn fast
                the early november
baby blue
play half step..
p.s. please don't e-mail me asking how to 
tune your guitar half step.  

intro/verse
-----------------------------------------
-----------------------------------------
-5-5--5-5--------------------------------
-5-5--5-5--------------------------------
-2-3--x-3--------------------------------
------3-1--------------------------------

chorus
----------------------------------------
----------------------------------------
-5----5-----5-5-------------------------
-5----5-----5-5-------------------------
-2xxxx3xxxx-x-3-------------------------
------------3-1-------------------------

little break after chorus
-----------------------------------------
-----------------------------------------
---------5-5------------5-5------5-------
-----5-5-----5-5----5-5-----5-5--5-------
-2-2--------------3--------------3-------
---------------------------------1xxxx---

after chorus 2, strum lightly..
-----------------------------------------
-----------------------------------------
-5-5-55-5--------------------------------
-5-5-55-5--------------------------------
-2-3-xx-3--------------------------------
-----53-1--------------------------------

I haven't figured out the ending guitar..
but this is what I now have..
help would be appreciated..
it might be the same as the rest.. but the 
lead guitar is something on the B string..

outro (pickslide to start)
-----------------------------------------
-----------------------------------------
--5----5----5----5-----------------------
--5----5----5----5-----------------------
--x----x----3----3-----------------------
--5----3----1----1-----------------------

-----------------------------------------
---/8-6-5....---(something around here.)-
-----------------------------------------
-----------------------------------------
-----------------------------------------
-----------------------------------------
            

comments powered by Disqus
↑ Back to top | Early November Tabs for Baby Blue. Lyrics for acoustic guitar and electric guitar. Tablatures and chords are parodies/interpretations of the original songs. You may use it for private study, scholarship, research or language learning purposes only