» » »

All We Ever Needed Demo Bass tabs (ver.1)

Artists:  A B C D E F G H I J K L M N O P Q R S T U V W X Y Z # 

All We Ever Needed Demo Bass tabs (ver.1)

Early November
Rating:
0/5 (0 votes)

Hard to play? Try these video lessons and learn fast.
                Half Step Down (usually dropped D, but I don’t like playing like that)

This is the demo version, the album version is posted here too.  They are different (this one is harder, but much more fun), so make sure you know which one you are playing.

Intro 
G|---------------------------------------|    |------|
D|--------------------77777777777777776--|(x2)|------|
A|--77777777-66666666--------------------|    |--7~--|
E|---------------------------------------|    |------|

G|-------------------------------|
D|--------------5/6~-5/7-6-------|
A|--7~--6-7-6-7------------5/7~--|
E|-------------------------------|

Verse (x4)
G|------------------|
D|----------7-6-----|
A|--7--7-6------0~--|
E|------------------|

Chorus 							    4th time only
G|-------------------------------------|    |-------------------------------------|
D|--------------------77777777---------|(x4)|-------------------7777777777777777--|
A|--77777777-66666666------------------|    |--7777777777777777-------------------|
E|-----------------------------999-77--|    |-------------------------------------|

Verse (x2)
G|------------------|
D|----------7-6-----|
A|--7--7-6------0~--|
E|------------------|

Verse part 2
G|-------------------------------------|    |------------------|
D|--------------5/6-7676-5/6-7-6-------|(x2)|--7p6-66-7p6-66---|
A|--7~--6-7-6-7------------------5/7~--|    |---------------7--|
E|-------------------------------------|    |------------------|

Chorus (x2)							    4th time only
G|-------------------------------------|    |-------------------------------------|
D|--------------------77777777---------|(x4)|-------------------7777777777777777--|
A|--77777777-66666666------------------|    |--7777777777777777-------------------|
E|-----------------------------999-77--|    |-------------------------------------|

Outro 
G|------------------|    |-----------------------|
D|----------7-6-----|(x2)|--6/7-7-7--5/7-7-7-----|
A|--7--7-6------0~--|    |-------------------7~--|
E|------------------|    |-----------------------|
            
Hard to play? Try these video lessons and learn fast. | Correct




comments powered by Disqus
↑ Back to top | Tablatures and chords are parodies/interpretations of the original songs. You may use it for private study, scholarship, research or language learning purposes only