» » »

A Little More Time Tabs (ver.1)

Artists:  A B C D E F G H I J K L M N O P Q R S T U V W X Y Z # 

A Little More Time Tabs (ver.1)

Early November
Rating:
4/5 (1 vote)

Hard to play? Try these video lessons and learn fast.
                it was too hard to figure out all the lead guitar parts in the verse and chorus, but i got all the
main guitar parts and the solo.

* = mute guitar
h = hammer on
p = pull off
/ = slide up
\ = slide down
~ = let ring

song progression

intro/verse 4X
prechorus
chorus
intro/verse 4X
prechorus
chorus 2X
bridge
solo intro
solo (with chorus 2X in the background)
chorus 2X

intro/verse

--------------------4-444-444-444-|
--------------------0-000-000-000-|
------------------2-2-222-222-222-|
2--4p2-------2-2222-2-222-222-222-|
2------4p22--2-2220-0-000-000-000-|
0-----0----4-4-444----------------|

prechorus

0-000000000000*0-000000000000*0-00000000000000-0000000000000--|
0-000000000000*0-000000000000*0-00000000000000-0000000000000--|
1-111111111111*1-111111111111*1-11111111111111-1111111111111--|
2-222222222222*2-222222222222*2-22222222222222-2222222222222--|
4-444444444444*3-333333333333*2-22222222222222-2222222222222--|
------------------------------0-00000000000000-0000000000000--|

0-000000000000*0-000000000000*
0-000000000000*0-000000000000*
1-111111111111*1-111111111111*
2-222222222222*2-222222222222*
4-444444444444*3-333333333333*
------------------------------

chorus

0-000000000000*0-000000000000*0-000000000000*0-000000000000--|
0-000000000000*0-000000000000*0-000000000000*0-000000000000--|
1-111111111111*1-111111111111*2-222222222222*2-222222222222--|
2-222222222222*2-222222222222*2-222222222222*2-222222222222--|
2-222222222222*2-222222222222*0-000000000000*0-000000000000--|
0-000000000000*0-000000000000--------------------------------|

second verse intro lead

------------------------------------------------------------|
------------------------------------------------------------|
------------------------------------------------------------|
------6/7-6----------------9~-----------9/11--7---6---4-----|
-----------7~----------7h9----------------------------------|
------------------------------------------------------------|

bridge

0~--0~--0~--0~--0~--0~--0~--0~---------------------------------|
0~--0~--0~--x~--0~--0~--0~--0~---------------------------------|
1~--1~--1~--3~--2~--x~--x~--x~--2-222222222222222222222222222--|
2~--2~--2~--4~--2~--2~--2~--3~--3-333333333333333333333333333--|
4~--3~--2~--1~--0~--2~--2~--4~--3-333333333333333333333333333--|
--------0~----------4~--3~--4~--1-111111111111111111111111111--|

solo intro

---------------------|
---------------------|
---------------------|
---------------11-13-|
------11-12-14-------|
12-14----------------|

solo

-------------------------------------------------------------|
----12--12------12------------------12----9---7--------------|
----13--13p11---11----------9--11/13----11---9-----9---------|
14-----------14------14-9h11---------------------11---11--9--|
----------------------------------------------------------7--|
-------------------------------------------------------------|

--------------------------------------------------------------|
--------------------------------------------------------------|
--------------------------------------------------------------|
-----------------9-9-9-9-9-9------------------------------9-9-|
7-9-9-9-11-11-11--------------7--7-7/9-9-9/11-11-11-11-11-----|
--------------------------------------------------------------|
            
Hard to play? Try these video lessons and learn fast. | Correct




comments powered by Disqus
↑ Back to top | Tablatures and chords are parodies/interpretations of the original songs. You may use it for private study, scholarship, research or language learning purposes only