» » »

Early November, Air Will Be Clearer Tabs (ver.1)

Artists:  A B C D E F G H I J K L M N O P Q R S T U V W X Y Z # 

Air Will Be Clearer Tabs (ver.1)

Early November Tabs
Rating:
2/5 (1 vote)
Air Will Be Clearer lessons Tabs too difficult? Try these video lessons and learn fast
                
Intro/Verse
(Guitar 1)
eb|-1--5--1--3----|
Bb|-1--5--1--3----|
Gb|-2--5--2--3----|
Db|-3--7--3--5----|
Ab|-3--7--3--5----|
Eb|-1--5--1--3----|

(Guitar 2)
eb|--17/15--------15--12/13/12---------------|
Bb|--------13-15-----------------------------|
Gb|---------------------------7-9-7-4/5/4-2--|
Db|------------------------------------------|
Ab|------------------------------------------|
Eb|------------------------------------------|

eb|--17/15--------15--12/13/12---------|
Bb|--------13-15-----------------------|
Gb|---------------------------7-9-12~~-|
Db|------------------------------------|
Ab|------------------------------------|
Eb|------------------------------------|
[ps: use a slide when playing this lead]

Verse 
(Guitar 2)
eb|--------------------------------------------------------|
Bb|------------------------13-12---------------------------|
Gb|--------12-14-------12---------------12-14--12~~--------|
Db|-12-14--------12-14------------12-14---------------x2---|
Ab|--------------------------------------------------------|
Eb|--------------------------------------------------------|

Chorus
(Guitar 1)
eb|------------------------------------1-1--|
Bb|------------------------------------1-1--|
Gb|--5-5-5-5--4-4-4-4------------------1-1--|
Db|--5-5-5-5--5-5-5-5-7-7-7-7--3-3-3-3-3-3--|
Ab|--3-3-3-3--2-2-2-2-7-7-7-7--3-3-3-3-3-3--|
Eb|-------------------5-5-5-5--1-1-1-1-1-1--|

(Guitar 2)
eb|-----------3-----------3----------3---------3----------0--|
Bb|-----3-----------3-----------3----------3---------1-------|
Gb|--5-----5-----5-----4-----4-----2----2----2----0-----0----|
Db|----------------------------------------------------------|
Ab|----------------------------------------------------------|
Eb|----------------------------------------------------------|
[ps: picking isn't show exactly as many times as it's played]

Bridge
eb|---------------------------|
Bb|---------------------------|
Gb|---------------------------|
Db|--5-5-5-5-5-3-3-3-3-3--x3--|
Ab|--5-5-5-5-5-3-3-3-3-3------|
Eb|--3-3-3-3-3-1-1-1-1-1------|
            

comments powered by Disqus
↑ Back to top | Early November Tabs for Air Will Be Clearer. Lyrics for acoustic guitar and electric guitar. Tablatures and chords are parodies/interpretations of the original songs. You may use it for private study, scholarship, research or language learning purposes only