» » »

Early Man, War Eagle Tabs (ver.1)

Artists:  A B C D E F G H I J K L M N O P Q R S T U V W X Y Z # 

War Eagle Tabs (ver.1)

Early Man Tabs
 Rating:
4.2/5 (5 votes)
War Eagle lessons Tabs too difficult? Try these video lessons and learn fast
1
                


Tuning: Standard

I have tabbed out all the parts here. The structure jumps around 
a bit. If you listen to the song its pretty easy to figure out. 



Intro
E|---------------------------------|
B|---------------------------------|
G|---------------------------------|
D|------5-----4-----7---4-5-4-2-0--|
A|--0-3---0-3---0-3---0------------|
E|---------------------------------|
PM  . .   . .   . .   .

E|---------------------------------|
B|---------------------------------|
G|---------------------------------|
D|------5-----4-----7---4-5-4-5-7--|
A|--0-3---0-3---0-3---0------------|
E|---------------------------------|
PM  . .   . .   . .   .

E|---------------------------------|
B|---------------------------------|
G|---------------------------------|
D|------5-----4-----7---4-5-4-2-0--|
A|--0-3---0-3---0-3---0------------|
E|---------------------------------|
PM  . .   . .   . .   .

E|---------------------------------|
B|---------------------------------|
G|---------------------------------|
D|------5-----4-----7---4-5-4-5-7--|
A|--0-3---0-3---0-3---0------------|
E|---------------------------------|
PM  . .   . .   . .   .



Riff A
E|------------------------------------------|
B|------------------------------------------|
G|--9------9------9------9------9-----9-----|
D|--9------9------9------9------9-----9-----|
A|--7-777--7-777--7-777--7-777--7-77--7-77--|
E|------------------------------------------|
PM    ...    ...    ...    ...    ..    ..

E|------------------------------------------|
B|------------------------------------------|
G|--9------9------9------9------------------|
D|--9------9------9------9--------5---7-----|
A|--7-777--7-777--7-777--7-777--3---5-------|
E|------------------------------------------|
PM    ...    ...    ...    ...   

E|------------------------------------------|
B|------------------------------------------|
G|--9------9------9------9------9-----9-----|
D|--9------9------9------9------9-----9-----|
A|--7-777--7-777--7-777--7-777--7-77--7-77--|
E|------------------------------------------|
PM    ...    ...    ...    ...    ..    ..

E|------------------------------------------|
B|------------------------------------------|
G|--9------9------9------9------------------|
D|--9------9------9------9--------5---4-----|
A|--7-777--7-777--7-777--7-777--3---2-------|
E|------------------------------------------|
PM    ...    ...    ...    ...   



Riff B
E|-------------------------------------------|
B|-------------------------------------------|
G|-------------------------------------------|
D|--2-2-2-2-4-4-4-4-5-5-5-5-7-7-7-7-9-9-9-9--|
A|-------------------------------------------|
E|-------------------------------------------|
PM  . . . . . . . . . . . . . . . . . . . .

E|-------------------------------|
B|-------------------------------|
G|-------------------------------|
D|--10-10-10-10-9-9-9-9-5-5-5-5--|
A|-------------------------------|
E|-------------------------------|
PM   .  .  .  .  . . . . . . . .

E|---------------------------------------|
B|---------------------------------------|
G|--9------9------9------9------9-----9--|
D|--9------9------9------9------9-----9--|
A|--7-777--7-777--7-777--7-777--7-77--7--|
E|---------------------------------------|
PM    ...    ...    ...    ...    ..

E|-------------------------------------------|
B|-------------------------------------------|
G|-------------------------------------------|
D|--2-2-2-2-4-4-4-4-5-5-5-5-7-7-7-7-9-9-9-9--|
A|-------------------------------------------|
E|-------------------------------------------|
PM  . . . . . . . . . . . . . . . . . . . .

E|-------------------------------------------|
B|-------------------------------------------|
G|-------------------------------------------|
D|--10-10-10-10-9-9-9-9-5-5-5-5--------------|
A|-------------------------------------------|
E|-------------------------------------------|
PM  .  .  .  .  . . . . . . . .



Riff C (Repeat Last Half Over Lead B)
E|-----------------------------------------------------------|
B|-----------------------------------------------------------|
G|------5/7-------------5/4-------------5-2-2---------5-2-2--|
D|------5/7-----7/5-----5/4------5-2-2--5-2-2--5-2-2--5-2-2--|
A|------3/5-----7/5-----3/2------5-2-2--3-0-0--5-2-2--3-0-0--|
E|--0-0-----0-0-5/3-0-0-----0-0--3-0-0---------3-0-0---------|
PM  . .     . .     . .     . .    



Lead A
E|--0-------------0---------------0--|
B|----8-7-0-8-7-0---0-8-7-0-8-7-0----|
G|-----------------------------------|
D|-----------------------------------|
A|-----------------------------------|
E|-----------------------------------|



Lead B
E|--7-0-0-5-0-10-0-0--|
B|--------------------|
G|--------------------|
D|--------------------|
A|--------------------|
E|--------------------|



Lead C
E|-------------------------------------------------------------------|
B|-------------------------------------------------------------------|
G|--9-7-9--4-5-14-12-11-11H12P11-7H9P7--5-5-5555-7--4-444--222--000--|
D|-------------------------------------------------------------------|
A|-------------------------------------------------------------------|
E|-------------------------------------------------------------------|



Lead D
E|--7-0-0-10-0-5-0-0--|
B|--------------------|
G|--------------------|
D|--------------------|
A|--------------------|
E|--------------------|
            
Submit corrections

comments powered by Disqus
↑ Back to top | Early Man Tabs for War Eagle. Lyrics for acoustic guitar and electric guitar. 1 Tablatures and chords are parodies/interpretations of the original songs. You may use it for private study, scholarship, research or language learning purposes only