>
 >
Thrill Of The Kill

Thrill Of The Kill Guitar Tabs

Early Man - Thrill Of The Kill chords, tabs, tablatures, lyrics

Guitar lessons | Add/correct | Request | Top 50 tabs Artists:  A B C D E F G H I J K L M N O P Q R S T U V W X Y Z 0-9

Thrill Of The Kill Guitar Tabs – Early Man

CD, Sheet music, Poster

Do you like Thrill Of The Kill? Share with your friends now
Tabs
EARLY MAN
Thrill Of The Kill (Track 5)


Standard Tuning

RIFF A
e|---------------------------------------------| 
B|---------------------------------------------| 
G|---------------------------------------------| 
D|---------------------------------------------| 
A|---------------------------------------------| 
E|-6p3-3-3--3-3--3-3--3-3--3-3--3-3--3-3--3-3--|
pm     . .  . .  . .  . .  . .  . .  . .  . .


e|-------------------------------------------| 
B|-------------------------------------------| 
G|-------------------------------------------| 
D|-------------------------------------------| 
A|--------------------------------------4-3--| 
E|-2s3-3-3--3-3--3-3--3-3--3-3--3-3-3h6------|
pm     . .  . .  . .  . .  . .  . .

e|---------------------------------------------| 
B|---------------------------------------------| 
G|---------------------------------------------| 
D|---------------------------------------------| 
A|---------------------------------------------| 
E|-6p3-3-3--3-3--3-3--3-3--3-3--3-3--3-3--3-3--|
pm     . .  . .  . .  . .  . .  . .  . .  . .

e|--------------------------------| 
B|--------------------------------| 
G|--------------------------------| 
D|--------------------6----5------| 
A|--------------------4-66-3-55---| 
E|-2s3-3-3--3-3--3-3----44---33---|
pm     . .  . .  . .

PLAY RIFF A 5 TIMES


RIFF B
e|------------------------------------------------------| 
B|------------------------------------------------------| 
G|------------------------------------------------------| 
D|------------------------------------------------------| 
A|--3h4-0---------3h4-0---------3h4-0-66-66-66-66-66-66-| 
E|--------3-3-3-3-------6-6-6-6-------44-44-44-44-44-44-|
pm                                       ..    ..    ..

e|---------------------------------------------------| 
B|---------------------------------------------------| 
G|---------------------------------------------------| 
D|---------------------------------------------------| 
A|--3h4-0---------3h4-0---------3h4-0-66-6-5-3-5-3---| 
E|--------3-3-3-3-------6-6-6-6-------44-------------|
pm       

e|------------------------------------------------------| 
B|------------------------------------------------------| 
G|------------------------------------------------------| 
D|------------------------------------------------------| 
A|--3h4-0---------3h4-0---------3h4-0-66-66-66-66-66-66-| 
E|--------3-3-3-3-------6-6-6-6-------44-44-44-44-44-44-|
pm                                       ..    ..    ..

e|------------------------------------------------------| 
B|------------------------------------------------------| 
G|------------------------------------------------------| 
D|------------------------------------------------------| 
A|--3h4-0---------3h4-0---------3h4-0-66-66-66-66-66-66-| 
E|--------3-3-3-3-------6-6-6-6-------44-44-44-44-44-44-|
pm                                       ..    ..    ..


RIFF C (almost a solo, if you can call it that)
e|---------------------------------------------------| 
B|---------------------------------------------------|
G|---------------------------------------------------| 
D|-0-5-3h5p3-s8-7-5h7p5-0---8-7h8-0---7p0-7h8p7---7--| 
A|------------------------6---------8-----------8----| 
E|---------------------------------------------------|
pm                    
 
PLAY RIFF C 3 TIMES.


RIFF D
e|------------------------------------------------| 
B|------------------------------------------------| 
G|------------------------------------------------| 
D|------------------------------------------------| 
A|------5---6---6h8p6-5------5----6--6------------| 
E|--333--33---3----------333---33---3-3--666-555--|
pm  ...  ..   .          ...   ..   . .  ... ...

PLAY RIFF D 2 TIMES.



VARIATION ON RIFF A

e|---------------------------------------------| 
B|---------------------------------------------| 
G|---------------------------------------------| 
D|---------------------------------------------| 
A|---------------------------------------------| 
E|-6p3-3-3--3-3--3-3--3-3--3-3--3-3--3-3--3-3--|
pm     . .  . .  . .  . .  . .  . .  . .  . .

e|---------------------------------------------| 
B|---------------------------------------------| 
G|---------------------------------------------| 
D|---------------------------------------------| 
A|---------------------------------------------| 
E|-3-3-3-3--3-3--3-3--3-3--3-3--3-3--3-3--3-3--|
pm . . . .  . .  . .  . .  . .  . .  . .  . .

e|-------------------------------------------------| 
B|-------------------------------------------------| 
G|-------------------------------------------------| 
D|-------------------------------------------------| 
A|-------------------------------------------------| 
E|-33333-33333-33333-33333-33333-33333-33333-33333-|
pm ..... ..... ..... ..... ..... ..... ..... .....


RIFF A
e|---------------------------------------------| 
B|---------------------------------------------| 
G|---------------------------------------------| 
D|---------------------------------------------| 
A|---------------------------------------------| 
E|-6p3-3-3--3-3--3-3--3-3--3-3--3-3--3-3--3-3--|
pm     . .  . .  . .  . .  . .  . .  . .  . .

e|-------------------------------------------| 
B|-------------------------------------------| 
G|-------------------------------------------| 
D|-------------------------------------------| 
A|--------------------------------------4-3--| 
E|-2s3-3-3--3-3--3-3--3-3--3-3--3-3-3h6------|
pm     . .  . .  . .  . .  . .  . .

e|---------------------------------------------| 
B|---------------------------------------------| 
G|---------------------------------------------| 
D|---------------------------------------------| 
A|---------------------------------------------| 
E|-6p3-3-3--3-3--3-3--3-3--3-3--3-3--3-3--3-3--|
pm     . .  . .  . .  . .  . .  . .  . .  . .

e|--------------------------------| 
B|--------------------------------| 
G|--------------------------------| 
D|--------------------6----5------| 
A|--------------------4-66-3-55---| 
E|-2s3-3-3--3-3--3-3----44---33---|

PLAY RIFF A 3 TIMES.


RIFF B
e|------------------------------------------------------| 
B|------------------------------------------------------| 
G|------------------------------------------------------| 
D|------------------------------------------------------| 
A|--3h4-0---------3h4-0---------3h4-0-66-66-66-66-66-66-| 
E|--------3-3-3-3-------6-6-6-6-------44-44-44-44-44-44-|
pm                                       ..    ..    ..

e|------------------------------------------------------| 
B|------------------------------------------------------| 
G|------------------------------------------------------| 
D|------------------------------------------------------| 
A|--3h4-0---------3h4-0---------3h4-0-66-66-66-66-66-66-| 
E|--------3-3-3-3-------6-6-6-6-------44-44-44-44-44-44-|
pm                                       ..    ..    ..

e|---------------------------------------------------| 
B|---------------------------------------------------| 
G|---------------------------------------------------| 
D|---------------------------------------------------| 
A|--3h4-0---------3h4-0---------3h4-0-66-6-5-3-5-3---| 
E|--------3-3-3-3-------6-6-6-6-------44-------------|
pm                                       

e|------------------------------------------------------| 
B|------------------------------------------------------| 
G|------------------------------------------------------| 
D|------------------------------------------------------| 
A|--3h4-0---------3h4-0---------3h4-0-66-66-66-66-66-66-| 
E|--------3-3-3-3-------6-6-6-6-------44-44-44-44-44-44-|
pm                                       ..    ..    ..


RIFF D
e|------------------------------------------------| 
B|------------------------------------------------| 
G|------------------------------------------------| 
D|------------------------------------------------| 
A|------5---6---6h8p6-5------5----6--6------------| 
E|--333--33---3----------333---33---3-3--666-555--|
pm  ...  ..   .          ...   ..   . .  ... ...


PLAY RIFF D APPROXIMATELY 12 TIMES (until the end of the song)


RIFF E OUTRO PLAYED OVER RIFF D

e|------------------------------------------------------| 
B|-000-3-00-2-0-3H5-3-0-000-3-00-2-0-2-0-333-222--------| 
G|------------------------------------------------------| 
D|--(I'M NOT TOO SURE ABOUT THIS, BUT IT SOUNDS CLOSE)--| 
A|------------------------------------------------------| 
E|------------------------------------------------------|





Comments


Popular Early Man tabs & chords
Brain Sick Tabs
Coiled Like A Snake Tabs
Contra Tabs
Death Is The Answer To My Prayers Tabs
Fist Shaker Tabs
Four Walls Tabs
I Wanna Set You On Fire Tabs
More To Me Than Meat And Eyes Tabs
Sinking The Blade Tabs
The Undertaker Is Calling You Tabs


Song lyrics



↑ Back to top | Tablatures and chords are parodies/interpretations of the original songs. You may use it for private study, scholarship, research or language learning purposes only
© 2014 AZChords.com Contact us | Privacy policy | DMCA | Add/correct tabs | Request tabs | Top 50 tabs