>
 >
The Undertaker Is Calling You

The Undertaker Is Calling You Guitar Tabs

Early Man - The Undertaker Is Calling You chords, tabs, tablatures, lyrics

Guitar lessons | Add/correct | Request | Top 50 tabs Artists:  A B C D E F G H I J K L M N O P Q R S T U V W X Y Z 0-9

The Undertaker Is Calling You Guitar Tabs – Early Man

CD, Sheet music, Poster

Do you like The Undertaker Is Calling You? Share with your friends now
Tabs



Tuning: Standard

There are a few minor variations that have been left but everything else is there.


E|--7-0-0-8-0-0-7-0-0-10-0-0-7-0-8-0--|
B|------------------------------------|
G|------------------------------------|
D|------------------------------------|
A|------------------------------------|
E|------------------------------------|

E|--7-0-0-5-0-0-3-0-0-2-0-0-3-0-2-0--|
B|-----------------------------------|
G|-----------------------------------|
D|-----------------------------------|
A|-----------------------------------|
E|-----------------------------------|

E|--7-0-0-8-0-0-7-0-0-10-0-0-7-0-8-0--|
B|------------------------------------|
G|------------------------------------|
D|------------------------------------|
A|------------------------------------|
E|------------------------------------|

E|------------------------------------|
B|--7-0-0-8-0-0-7-0-0-10-0-0-7-0-8-0--|
G|------------------------------------|
D|------------------------------------|
A|------------------------------------|
E|------------------------------------|

E|------------------------------------|
B|--7-0-0-8-0-0-7-0-0-10-0-0-7-0-8-0--|
G|------------------------------------|
D|------------------------------------|
A|------------------------------------|
E|------------------------------------|

E|--7-0-0-5-0-0-3-0-0-2-0-0-3-0-2-0--|*
B|-----------------------------------|
G|-----------------------------------|
D|-----------------------------------|
A|-----------------------------------|
E|-----------------------------------|

E|------------------------------------|
B|--7-0-0-8-0-0-7-0-0-10-0-0-7-0-8-0--|
G|------------------------------------|
D|------------------------------------|
A|------------------------------------|
E|------------------------------------|

E|---------------|
B|--7~-5~-3~-5~--|
G|---------------|
D|---------------|
A|---------------|
E|---------------|

E|-------------------------------|
B|-------------------------------|
G|-------9------9------9------9--|
D|-----9------9------9------9----|
A|--10-----10-----10-----10------|
E|-------------------------------|

E|--------------------------------|
B|--------------------------------|
G|--------9------9------9------9--|
D|-----10-----10-----10-----10----|
A|--10-----10-----10-----10-------|
E|--------------------------------|

E|--------------------------------|
B|--------------------------------|
G|--------9------9------9------9--|
D|-----11-----11-----11-----11----|
A|--10-----10-----10-----10-------|
E|--------------------------------|

E|--------------------------------|
B|--------------------------------|
G|--------9------9------9------9--|
D|-----10-----10-----10-----10----|
A|--10-----10-----10-----10-------|
E|--------------------------------|

E|-------------------------------------|
B|-------------------------------------|
G|-------------------------------------|
D|--------------------------------7h8--|
A|------7-----10-----7-----10p7--------|
E|--0-0---0-0----0-0---0-0------0------|

E|------------------------------------|
B|------------------------------------|
G|------------------------------------|
D|------------------------------------|
A|------7-----10-----7-----10p7-------|
E|--0-0---0-0----0-0---0-0------0-8~--|

E|----------------------------------|
B|----------------------------------|
G|----------------------------------|
D|------------------------8-8-------|
A|------7-----8-----7-----7-7---7/--|
E|--0-0---0-0---0-0---0-0-----0-----|

E|---------------------------------|
B|---------------------------------|
G|---------------------------------|
D|---------------------------------|
A|------7-----8-----7--------------|
E|--0-0---0-0---0-0---0-0-8p7-0-3--|

E|---------------------------------|
B|---------------------------------|
G|------7---6---5---4-----3-----2--|
D|------7---6---5---4-----3-----2--|
A|--0-0-5-0-4-0-3-0-2-0-0-1-0-0-0--|
E|---------------------------------|

E|---------------------------------|
B|---------------------------------|
G|---------------------------------|
D|------7---6---5---4-----3-----2--|
A|------7---6---5---4-----3-----2--|
E|--0-0-5-0-4-0-3-0-2-0-0-1-0-0-0--|

E|-----------------------------------|
B|-----------------------------------|
G|-----------------------------------|
D|------7---6---5-2-2-2-2---2-2-2-2--|
A|------7---6---5-2-2-2-2---2-2-2-2--|
E|--0-0-5-0-4-0-3-0-0-0-0---0-0-0-0--|

E|---------------------------------|
B|---------------------------------|
G|---------------------------------|
D|------2-----3-----2-----5/4---7--|
A|------2-----3-----2-----5/4---7--|
E|--0-0-0-0-0-1-0-0-0-0-0-3/2-0-5--|

E|-----------------------------------|
B|-----------------------------------|
G|-----------------------------------|
D|------2-----3-----2-----5/4---5/4--|
A|------2-----3-----2-----5/4---5/4--|
E|--0-0-0-0-0-1-0-0-0-0-0-3/2-0-3/2--|

E|----------------------------------|
B|----------------------------------|
G|----------------------------------|
D|------9------9-------9-------9----|
A|--------7------7-------7-------7--|
E|--0-0-----0-0----0-0-----0-0------|

E|---------------------------------------|
B|---------------------------------------|
G|---------------------------------------|
D|------10-------10-------10-------10----|
A|---------7--------7--------7--------7--|
E|--0-0------0-0------0-0------0-0-------|

E|-----------------------------------|
B|-----------------------------------|
G|-----------------------------------|
D|------5-------5-------5-------5----|
A|--------5-------5-------5-------5--|
E|--0-0-----0-0-----0-0-----0-0------|

E|----------------------------------|
B|----------------------------------|
G|----------------------------------|
D|------7-------7-------7---5-------|
A|--------5-------5-----5---5---5~--|
E|--0-0-----0-0-----0-0---0---0-----|

E|----------------------------------|
B|----------------------------------|
G|----------------------------------|
D|------9------9-------9-7-7-7h9p7--|
A|--------7------7------------------|
E|--0-0-----0-0----0-0--------------|

E|--------------------------------------|
B|--------------------------------------|
G|--------------------------------------|
D|------10-------10-------10-9-7-7h9p7--|
A|---------7--------7-------------------|
E|--0-0------0-0------0-0---------------|

E|-----------------------------------|
B|-----------------------------------|
G|-----------------------------------|
D|------5-------5-------5-------5----|
A|--------5-------5-------5-------5--|
E|--0-0-----0-0-----0-0-----0-0------|

E|----------------------------------|
B|----------------------------------|
G|----------------------------------|
D|------7-------7-------7---5-------|
A|--------5-------5-----5---5---5~--|
E|--0-0-----0-0-----0-0---0---0-----|

E|-----------------------------------|
B|-----------------------------------|
G|-----------------------------------|
D|------5-------5-------5-------5----|
A|--------5-------5-------5-------5--|
E|--0-0-----0-0-----0-0-----0-0------|

E|------------------------|
B|------------------------|
G|------------------------|
D|--2---------------------|
A|--2-/7-7-8-7-5-5h7p5-0--|
E|--0---------------------|

E|-------------------------|
B|-------------------------|
G|-------------------------|
D|--10---------------------|
A|--10-10-10-8~--8h98-7-5--|
E|--8----------------------|





Comments


Popular Early Man tabs & chords
Beware The Circling Fin Tabs
Brain Sick Tabs
Brain Sick Intro Tabs
Coiled Like A Snake Tabs
Contra Tabs
Evil Is Tabs
Evil Is Intro Tabs
Feeding Frenzy Tabs
Fist Shaker Tabs
Like A Goddamn Rat Tabs


Song lyrics



↑ Back to top | Tablatures and chords are parodies/interpretations of the original songs. You may use it for private study, scholarship, research or language learning purposes only
© 2014 AZChords.com Contact us | Privacy policy | DMCA | Add/correct tabs | Request tabs | Top 50 tabs