» » »

Early Man, Suck Me Dry Tabs (ver.1)

Artists:  A B C D E F G H I J K L M N O P Q R S T U V W X Y Z # 

Suck Me Dry Tabs (ver.1)

Early Man Tabs
 Rating:
4/5 (5 votes)
Suck Me Dry lessons Tabs too difficult? Try these video lessons and learn fast
1
                


Tuning: Standard

There are a few minor variations that have been left but everything else is there.


E|--------------------------------------------|
B|--------------------------------------------|
G|--7-7--4-4-------------7/9--4-4-------------|
D|--7-7--4-4--5-4-0------7/9--4-4--5-4-0-7-7--|
A|--5-5--2-2--------2-2--5/7--2-2-------------|
E|--------------------------------------------|

Lead #1
E|-------------------------------------|
B|--15b-12-15b-17b-15b-12-15b-17b-21b--|
G|-------------------------------------|
D|-------------------------------------|
A|-------------------------------------|
E|-------------------------------------|


E|-------------------------------------------------------------|
B|-------------------------------------------------------------|
G|--9/7--------------------------9/7---------------------------|
D|--9/7-5------------------------9/7-7-------------------------|
A|--7/5-5------------------------7/5-7-------------------------|
E|------3-333-333-333-333-333-33-----5-555-555-555-555-555-55--|
PM        ... ... ... ... ... ..       ... ... ... ... ... .. 

Lead #2
E|--------------|    |-----------------------------|
B|--12p10-------|    |--12-10-12-12b-12*-10-12-12--|* Strike while bent
G|--------11p9--|    |-----------------------------| 
D|--------------|X8  |-----------------------------|
A|--------------|    |-----------------------------|
E|--------------|    |-----------------------------|


E|---------------------------------------------|
B|---------------------------------------------|
G|--7----6----2----6----9----7----6----7----4--|
D|--7----6----2----6----9----7----6----7----4--|
A|--5-55-4-44-0-00-4-44-7-77-5-55-4-44-5-55-2--|
E|---------------------------------------------|
PM  . .. . .. . .. . .. . .. . .. . .. . .. 
            
Submit corrections

comments powered by Disqus
↑ Back to top | Early Man Tabs for Suck Me Dry. Lyrics for acoustic guitar and electric guitar. 1 Tablatures and chords are parodies/interpretations of the original songs. You may use it for private study, scholarship, research or language learning purposes only