» » »

Early Man, Sinking The Blade Tabs (ver.1)

Artists:  A B C D E F G H I J K L M N O P Q R S T U V W X Y Z # 

Sinking The Blade Tabs (ver.1)

Early Man Tabs
 Rating:
4.3/5 (6 votes)
Sinking The Blade lessons Tabs too difficult? Try these video lessons and learn fast
1
                


Tuning: Standard

This has been updated. The Intro / Verse part was a little off.
I also didn't tab out the solo's.

Intro/Verse

E|-------------------------------------------------------------|
B|-------------------------------------------------------------|
G|--------------------------------------------------------8/7--|
D|--------------------------------------------------------8/7--|
A|--------------------------------------------------------6/5--|
E|--3/5-5-5-5-5-8p5-5-5-5-5-5-5-5-5-3/5-5-5-5-5-8p5-5-5-5------|
  PM    . . . .     . . . . . . . .     . . . .     . . . 

E|-------------------------------------------------------------|
B|-------------------------------------------------------------|
G|--------------------------------------------------------7/5--|
D|--------------------------------------------------------7/5--|
A|--------------------------------------------------------5/3--|
E|--3/5-5-5-5-5-8p5-5-5-5-5-5-5-5-5-3/5-5-5-5-5-8p5-5-5-5------|
  PM    . . . .     . . . . . . . .     . . . .     . . . 

Ending to Intro/Verse
E|---------------|------------------|
B|---------------|------------------|
G|--7-6-5--------|--8-7-6-----------|
D|--7-6-5-7-6-5--|--8-7-6-8-7-6--7--|
A|--5-4-3-7-6-5--|--6-5-4-8-7-6--7--|
E|--------5-4-3--|--------6-5-4--5--|

Riff A
E|--------------------------------------------|
B|--------------------------------------------|
G|--------------------------------------------|
D|--7----------------------------7------------|
A|--7--------------------------6---6-8-7-6----|
E|--5-55-55-55-8p7p6p5-8p7p6p5-------------8--|
  PM  .. .. ..


Riff B
E|---------------------------------------------------|--------------------|
B|---------------------------------------------------|--------------------|
G|---------------------------------------------------|--------------------|
D|--7-----5/7-----8/7-----5/7-----8/7-----5/7--------|-10-10-10-10-10--8--|
A|--7-----5/7-----8/7-----5/7-----8/7-----5/7--------|-10-10-10-10-10--8--|
E|--5-0-0-3/5-0-0-6/5-0-0-3/5-0-0-6/5-0-0-3/5-0-0-0--|--8--8--8--8--8--6--|
  PM  . .     . .     . .     . .     . .     . . .

Riff B (Ending)
E|-----------------------------------------|
B|-----------------------------------------|
G|--5-5-5-5-5-5-4-4-4-4-4-4-3-3-3-3-3-3-2--|
D|--5-5-5-5-5-5-4-4-4-4-4-4-3-3-3-3-3-3-2--|
A|--3-3-3-3-3-3-2-2-2-2-2-2-1-1-1-1-1-1-0--|
E|-----------------------------------------|


E|-----------------------------------------|
B|-----------------------------------------|
G|-----------------------------------------|
D|--------------------------------------2--|
A|--0-0-7p6p5-3-0-6p5p3-2-0-5p3p2-1-0-1----|
E|-----------------------------------------|
  PM. . 
            
Submit corrections

comments powered by Disqus
↑ Back to top | Early Man Tabs for Sinking The Blade. Lyrics for acoustic guitar and electric guitar. 1 Tablatures and chords are parodies/interpretations of the original songs. You may use it for private study, scholarship, research or language learning purposes only