>
 >
Raped And Pillaged

Raped And Pillaged Guitar Tabs

Early Man - Raped And Pillaged chords, tabs, tablatures, lyrics

Guitar lessons | Add/correct | Request | Top 50 tabs Artists:  A B C D E F G H I J K L M N O P Q R S T U V W X Y Z 0-9

Raped And Pillaged Guitar Tabs – Early Man

CD, Sheet music, Poster

Do you like Raped And Pillaged? Share with your friends now
Tabs



Tuning: Standard

There are a few minor variations that have been left but everything else is there.

Into (First few times leave out the 0's)
E|---------------------------------------------------|
B|---------------------------------------------------|
G|---------------------------------------------------|
D|----------8p7---------5h7-------5p3p2--------------|
A|--0-0-0-0-----0-0-0-0-----0-0-0-------0-0-0-5p3p2--|
E|---------------------------------------------------|
  PM. . . .     . . . .     . . .       . . . 

Verse
E|------------------------------------------------------------------|
B|------------------------------------------------------------------|
G|-----------------------------------------------------3/4-----3/4--|
D|------------------------3p2--------------------------3/4-----3/4--|
A|--0-0-0-0-0-0-0-0-0-0-0-----0-3/-0-0-0-0-0-0-0-0-0-0-1/2-0-0-1/2--|
E|------------------------------------------------------------------|
  PM. . . . . . . . . . .     .    . . . . . . . . . .     . .

E|-----------------------------------------------------------------|
B|-----------------------------------------------------------------|
G|--------------------------------------------------3/4-----3/4/5--|
D|------------------------3p2-----------------------3/4-----3/4/5--|
A|--0-0-0-0-0-0-0-0-0-0-0-----0-3/-0-0-0-0-0-0-0-0--1/2-0-0-1/2/3--|
E|-----------------------------------------------------------------|
  PM. . . . . . . . . . .     .    . . . . . . . .      . .

E|---------------------------------------------------------|
B|---------------------------------------------------------|
G|--------------------------------------------3/4-----3/4--|
D|-------------------3p2----------------------3/4-----3/4--|
A|--0--0--0--0--0--0-----0-3/-0--0--0--0--0-0-1/2-0-0-1/2--|
E|---------------------------------------------------------|
  PM.  .  .  .  .  .     .    .  .  .  .  . .     . .


E|---------------------------------------------------------|
B|---------------------------------------------------------|
G|--------------------------------------------3/4---5---4--|
D|-------------------3p2----------------------3/4---5---4--|
A|--0--0--0--0--0--0-----0-3/-0--0--0--0--0-0-1/2-0-3-0-2--|
E|---------------------------------------------------------|
  PM.  .  .  .  .  .     .    .  .  .  .  . .     .   .

E|--------------------------------------------------------------------|
B|--------------------------------------------------------------------|
G|-----------------------------------------------------3/4-----3/4-2--|
D|------------------------3p2--------------------------3/4-----3/4-2--|
A|--0-0-0-0-0-0-0-0-0-0-0-----0-3/-0-0-0-0-0-0-0-0-0-0-1/2-0-0-1/2-0--|
E|--------------------------------------------------------------------|
  PM. . . . . . . . . . .     .    . . . . . . . . . .     . .

E|--------------------------------------------------------------------|
B|--------------------------------------------------------------------|
G|--------------------------------------------------3/4-----5/4--5/4--|
D|------------------------3p2-----------------------3/4-----5/4--5/4--|
A|--0-0-0-0-0-0-0-0-0-0-0-----0-3/-0-0-0-0-0-0-0-0--1/2-0-0-3/2--3/2--|
E|--------------------------------------------------------------------|
  PM. . . . . . . . . . .     .    . . . . . . . .      . .


E|-----------------------------------------------------------|
B|-----------------------------------------------------------|
G|------2-----2-----2-----2-5/4-----6/5-----7/6-----8/7------|
D|------2-----2-----2-----2-5/4-----6/5-----7/6-----8/7------|
A|--0-0-0-0-0-0-0-0-0-0-0-0-3/2-0-0-4/3-0-0-5/4-0-0-6/5-0-0--|
E|-----------------------------------------------------------|
 PM . .   . .   . .   . .       . .     . .     . .     . .

Lead
E|------------------|--15br-p12----12----12-15b--|
B|--9b-10b-11b-13b--|-----------15----15---------|
G|------------------|----------------------------|
D|------------------|----------------------------|
A|------------------|----------------------------|
E|------------------|----------------------------|


E|-----------|-----------|
B|-----------|-----------|
G|-----------|-----------|
D|-----------|-----------|
A|--0-0-0-0--|-00000000--|
E|-----------|-----------|
  PM. . . .    ........





Comments


Popular Early Man tabs & chords
Beware The Circling Fin Tabs
Brain Sick Intro Tabs
Contra Tabs
Death Is The Answer To My Prayers Tabs
Evil Is Tabs
Evil Is Intro Tabs
Feeding Frenzy Tabs
I Wanna Set You On Fire Tabs
More To Me Than Meat And Eyes Tabs
The Undertaker Is Calling You Tabs


Song lyrics



↑ Back to top | Tablatures and chords are parodies/interpretations of the original songs. You may use it for private study, scholarship, research or language learning purposes only
© 2014 AZChords.com Contact us | Privacy policy | DMCA | Add/correct tabs | Request tabs | Top 50 tabs