» » »

More To Me Than Meat And Eyes Tabs (ver.1)

Artists:  A B C D E F G H I J K L M N O P Q R S T U V W X Y Z # 

More To Me Than Meat And Eyes Tabs (ver.1)

Early Man
Rating:
5/5 (1 vote)
Tabs too difficult? Try these video lessons and learn fast.
                -------------------------------------------------------------------------------
-------------------------------------------------------------------------------

Tuning: Drop D


| *  Palm Mute
| \  Slide Down
===============================================================================
First of all, I'm not too sure if this is the right tuning that Early Man used to record 
song, but you can play it in this tuning just as good.

|---------------------------------------------------------------||
|---------------------------------------------------------------||
|---------------------------6-----------------------------------||
|-7-6-----------------5-6-------7-6---6-5---5-4-----------------||
|-5-4-4-4-4-4-4-4-7-4-----4---4-----4-----4-----4-7-6-4-6-5-4-4-||
|---------------------------------------------------------------|| x4
      * * * * * *   *     *   *     *     *     *     *     * *

ONE Guitar
|-----------------------------------------------|
|-----------------------------------------------|
|-----------------------------------------------|
|-7-6-------------------------------------------|
|-5-4-4-4-4-4-4-4-4-4-4-4-4-4-4-4-7-4-4-4-4-4-4-|\
|-----------------------------------------------| \
      * * * * * * * * * * * * * *   * * * * * *    \
                                                   /
Second Guitar comes back in                       /
Both Guitars                                     /
|-----------------|                            -- /
|-----------------|                           --- /
|-----------------|                          ---- /
|-4-6-----7-6-----| /_ _ _ _ _ _ _ _ _ _ _ _----- /
|-2-4-4-4-5-4-4-4-------------------------------- / \
|------------------------------------------------ /
      * *     * *  \
                    \
|---------------------------------------------------------------||
|---------------------------------------------------------------||
|---------------------------------------------------------------||
|-7-6-------------------------------------------4-6-----7-6-----||
|-5-4-4-4-4-4-4-4-4-4-4-4-4-4-4-4-7-4-4-4-4-4-4-2-4-4-4-5-4-4-4-||
|---------------------------------------------------------------|| x8
      * * * * * * * * * * * * * *   * * * * * *     * *     * *

|---------------------------------------------------------------||
|---------------------------------------------------------------||
|---------------------------6-----------------------------------||
|-7-6-----------------5-6-------7-6---6-5---5-4-----------------||
|-5-4-4-4-4-4-4-4-7-4-----4---4-----4-----4-----4-7-6-4-6-5-4-4-||
|---------------------------------------------------------------|| x2
      * * * * * *   *     *   *     *     *     *     *     * *

|---------------------------------------------------------------------------|
|---------------------------------------------------------------------------|
|---------------------------------------------------------------------------|
|-7-6-----------------------------------------------------------------------|
|-5-4-4-4-4-4-4-4-4-4-4-4-4-4-4-4-4-4-4-4-4-4-4-4-4-4-4-4-4-4-4-4-4-4-4-4-4-|
|---------------------------------------------------------------------------|
      * * * * * * * * * * * * * * * * * * * * * * * * * * * * * * * * * * *

Guitar 1
|-------------------------------|
|-------------------------------|
|-------------------------------|
|---------------4-6-----7-6-----|
|-7-4-4-4-4-4-4-2-4-4-4-5-4-4-4-|
|-------------------------------|
    * * * * * *     * *     * *

Guitar 2
|-9999999999-12-11-9-12-11-9-12-11-9-12-11-9-9\-|
|-----------------------------------------------|
|-----------------------------------------------|
|-----------------------------------------------|
|-----------------------------------------------|
|-----------------------------------------------|

|---------------------------------------------------------------||
|---------------------------------------------------------------||
|---------------------------------------------------------------||
|-7-6-------------------------------------------4-6-----7-6-----||
|-5-4-4-4-4-4-4-4-4-4-4-4-4-4-4-4-7-4-4-4-4-4-4-2-4-4-4-5-4-4-4-||
|---------------------------------------------------------------|| x8
      * * * * * * * * * * * * * *   * * * * * *     * *     * *

|-------------------------------------------||
|-------------------------------------------||
|-------------------------------------------||
|-7-6-----9-6-----4-6-----4-5-----7-6-3-----||
|-5-4-----7-4-----2-4---------6-5-------5-2-||
|-------------------------------------------|| x3

|-----------------------------------------------------------|
|-----------------------------------------------------------|
|-----------------------------------------4-5-----7-6-3-----|
|-7-6-----9-6-----4-6-----4-5-----7-6-3-------6-5-------5-2-|
|-5-4-----7-4-----2-4---------6-5-------5-------------------|
|-----------------------------------------------------------|

|---------------------------------------------||
|---------------------------------------------||
|---------------------------------------------||
|-7-6-----9-6-----4-6-----22-2-33-3-44-4-55-5-||
|-5-4-----7-4-----2-4-------------------------||
|---------------------------------------------|| x3

|----------------------------------------------------------------------|
|----------------------------------------------------------------------|
|----------------------------------------------------------------------|
|-7-6-----9-6-----4-6-----22-2-33-3-44-4-55-5-44-4-55-5-66-6-77-7-6--\-|
|-5-4-----7-4-----2-4---------------------------------------------4--\-|
|----------------------------------------------------------------------|
            
Tabs too difficult? Try these video lessons and learn fast.


comments powered by Disqus
↑ Back to top | Tablatures and chords are parodies/interpretations of the original songs. You may use it for private study, scholarship, research or language learning purposes only