» » »

Like A Goddamn Rat Tabs (ver.1)

Artists:  A B C D E F G H I J K L M N O P Q R S T U V W X Y Z # 

Like A Goddamn Rat Tabs (ver.1)

Early Man
Rating:
5/5 (1 vote)

Hard to play? Try these video lessons and learn fast.
                


Tuning: Standard

There are a few minor variations that have been left but everything else is there.

Intro
E|---------------------------------------------------------------------|
B|---------------------------------------------------------------------|
G|---------------------------------------------------------------------|
D|--2-222-222-222-333-333--5-5-5-5/---2-222-222-222-333-333--5-5-5-5/--|
A|---------------------------------------------------------------------|
E|---------------------------------------------------------------------|
  PM. ... ... ... ... ...             . ... ... ... ... ...

E|---------------------------------------------------------------------|
B|---------------------------------------------------------------------|
G|--2-222-222-222-333-333--5-5-5-5/---2-222-222-222-333-333--5-5-5-5/--|
D|---------------------------------------------------------------------|
A|---------------------------------------------------------------------|
E|---------------------------------------------------------------------|
  PM. ... ... ... ... ...             . ... ... ... ... ...


Verse (Kinda hard to tell whats going on)
E|--------------------------------------------------------------|
B|--------------------------------------------------------------|
G|--------7---7-------------------------------------------------|
D|-------------------------------------5---5--------------------|
A|--5-5-5---5---5-------8---8-----------------------------------|
E|----------------6-6-6---6---6--3-3-3---3---3--5-5-5-6--5-6-8--|


E|--------------------------------------------------------------------------|
B|--------------------------------------------------------------------------|
G|--------------------------------------------------------------------------|
D|--------------------------------------------------------------------------|
A|--5-555-555-555-55-6p5--5-555-555-55-8p5--5-555-555-5/--0-6-8-0-5-7-0-7/--|
E|--------------------------------------------------------------------------|
  PM. .. ... ... ..       . ... ... ..      . ... ...     . . . . . . .


E|-------------------------------------|
B|-------------------------------------|
G|-------------------------------------|
D|------------------------7------------|
A|--0-5-6-0-5-8-0-5-6-0-5---0-5-6-5-0--|
E|-------------------------------------|
  PM. . . . . . . . . . .   . . . . .

Chorus
E|-----------------------|
B|-----------------------|
G|--7---8-5-5/7-10-5-5/--|
D|--7---8-5-5/7-10-5-5/--|
A|--5---6-3-3/5--8-3-3/--|
E|-----------------------|

Lead (You probably want to tap this part)
E|-----------------------------------------------------------------|
B|-----------------------------------------------------------------|
G|--7p5p0-7p5p0-7p5p0-7p5p0-7p5p0---8p5p0-8p5p0-8p5p0-8p5p0-8p5p0--|
D|-----------------------------------------------------------------|
A|-----------------------------------------------------------------|
E|-----------------------------------------------------------------|

E|----------------------------------------------------------------------|
B|----------------------------------------------------------------------|
G|--10p5p0-10p5p0-10p5p0-10p5p0-10p5p0---8p5p0-8p5p0-8p5p0-8p5p0-8p5p0--|
D|----------------------------------------------------------------------|
A|----------------------------------------------------------------------|
E|----------------------------------------------------------------------|

Ending
E|-------------------------------------|
B|-------------------------------------|
G|-------------------------------------|
D|------------------------7------------|
A|--0-5-6-0-5-8-0-5-6-0-5---0-5-6-5-0--|
E|-------------------------------------|
  PM. . . . . . . . . . .   . . . . .

E|-----------------------------------|
B|-----------------------------------|
G|-----------------------------------|
D|------------------------8----------|
A|--0-6-7-0-6-9-0-6-7-0-6---0-6-7-6--|
E|-----------------------------------|
  PM. . . . . . . . . . .   . . . . 

E|------------------------------------|
B|------------------------------------|
G|------------------------------------|
D|-------------------------9----------|
A|--0-7-8-0-7-10-0-7-8-0-7---0-7-8-7--|
E|------------------------------------|
  PM. . . . . . . . . . .   . . . . 

E|----------------------------------------|
B|----------------------------------------|
G|----------------------------------------|
D|-------------------------10-------------|
A|--0-8-9-0-8-11-0-8-9-0-8----0-8-9-8-9/--|
E|----------------------------------------|
  PM. . . . . . . . . . .   . . . . .
            
Hard to play? Try these video lessons and learn fast. | Correct




comments powered by Disqus
↑ Back to top | Tablatures and chords are parodies/interpretations of the original songs. You may use it for private study, scholarship, research or language learning purposes only