» » »

Four Walls Tabs (ver.1)

Artists:  A B C D E F G H I J K L M N O P Q R S T U V W X Y Z # 

Four Walls Tabs (ver.1)

Early Man
Rating:
4/5 (1 vote)

Hard to play? Try these video lessons and learn fast.
                EARLY MAN
"Four Walls"


Standard Tuning

RIFF A
e|---------------------------------------------------|
B|---------------------------------------------------|
G|---------------------------------------------------|
D|-4~-4-4-4--7~-7-7-7--------------------------------|
A|-2~-2-2-2--5~-5-5-5--5~-5-5-5--7~-7-7-7--4~-4-4-4--|
E|---------------------3~-3-3-3--5~-5-5-5--2~-2-2-2--|
pm    . . .     . . .     . . .     . . .     . . .

e|---------------------------------------------------|
B|---------------------------------------------------|
G|---------------------------------------------------|
D|-4~-4-4-4--7~-7-7-7--------------------------------|
A|-2~-2-2-2--5~-5-5-5--5~-5-5-5--7~-7-7-7--4~-4-4-4--|
E|---------------------3~-3-3-3--5~-5-5-5--2~-2-2-2--|
pm    . . .     . . .     . . .     . . .     . . .

RIFF B
e|------------------------------------------|
B|------------------------------------------|
G|------------------------------------------|
D|-----5-4-3-2---5-4-3-----5-4-3-2---3-4-5--|
A|-0-0-3-2-1-0-0-3-2-1-0-0-3-2-1-0-0-1-2-3--|
E|------------------------------------------|
pm . .         .       . .         .

e|-----------------------------------------|
B|-----------------------------------------|
G|-----------------------------------------|
D|-----5-4-3-2---5-4-3-----5-4-3-2222-3333-|
A|-0-0-3-2-1-0-0-3-2-1-0-0-3-2-1-0000-1111-|
E|-----------------------------------------|
pm . .         .       . .

e|------------------------------------------|
B|------------------------------------------|
G|------------------------------------------|
D|-----5-4-3-2---5-4-3-----5-4-3-2---3-4-5--|
A|-0-0-3-2-1-0-0-3-2-1-0-0-3-2-1-0-0-1-2-3--|
E|------------------------------------------|
pm . .         .       . .         .

e|-----------------------------------------|
B|-----------------------------------------|
G|-----------------------------------------|
D|-----5-4-3-2---5-4-3-----5-4-3-2222-3333-|
A|-0-0-3-2-1-0-0-3-2-1-0-0-3-2-1-0000-1111-|
E|-----------------------------------------|
pm . .         .       . .

LYRICS START
"Four walls are closing in on me..."

riff c (Verse)
e|----------------------------------------------|
B|----------------------------------------------|
G|----------------------------------------------|
D|----------5s-7-------------------5s-7---5b----| (pinch that last note)
A|-00000000-3s-5---5-6-7--00000000-3s-5---------|
E|---------------0-3-4-5----------------0-------|(x4)
pm ........      .        ........      .


riff d
(these are 12's and 10's, not 1's and 2's...)
e|-----------------------------------|
B|--12p0-0-7p0-8p0-10--(and repeat)--|
G|-----------------------------------|
D|-----------------------------------|
A|-----------------------------------|
E|-----------------------------------|
(played about 7 times during the chorus)


RIFF D can also be played like this
e|---------------------------------|
B|--12p0-0-----------(and repeat)--|
G|---------11-12-14----------------|
D|---------------------------------|
A|---------------------------------|
E|---------------------------------|

RIFF B again
e|------------------------------------------|
B|------------------------------------------|
G|------------------------------------------|
D|-----5-4-3-2---5-4-3-----5-4-3-2---3-4-5--|
A|-0-0-3-2-1-0-0-3-2-1-0-0-3-2-1-0-0-1-2-3--|
E|------------------------------------------|
pm . .         .       . .         .

e|-----------------------------------------|
B|-----------------------------------------|
G|-----------------------------------------|
D|-----5-4-3-2---5-4-3-----5-4-3-2222-3333-|
A|-0-0-3-2-1-0-0-3-2-1-0-0-3-2-1-0000-1111-|
E|-----------------------------------------|
pm . .         .       . .

e|------------------------------------------|
B|------------------------------------------|
G|------------------------------------------|
D|-----5-4-3-2---5-4-3-----5-4-3-2---3-4-5--|
A|-0-0-3-2-1-0-0-3-2-1-0-0-3-2-1-0-0-1-2-3--|
E|------------------------------------------|
pm . .         .       . .         .

e|-----------------------------------------|
B|-----------------------------------------|
G|-----------------------------------------|
D|-----5-4-3-2---5-4-3-----5-4-3-2222-3333-|
A|-0-0-3-2-1-0-0-3-2-1-0-0-3-2-1-0000-1111-|
E|-----------------------------------------|
pm . .         .       . .
            
Hard to play? Try these video lessons and learn fast. | Correct




comments powered by Disqus
↑ Back to top | Tablatures and chords are parodies/interpretations of the original songs. You may use it for private study, scholarship, research or language learning purposes only