>
 >
Fist Shaker

Fist Shaker Guitar Tabs

Early Man - Fist Shaker chords, tabs, tablatures, lyrics

Guitar lessons | Add/correct | Request | Top 50 tabs Artists:  A B C D E F G H I J K L M N O P Q R S T U V W X Y Z 0-9

Fist Shaker Guitar Tabs – Early Man

CD, Sheet music, Poster

Do you like Fist Shaker? Share with your friends now
Tabs



Tuning: Standard

There are a few minor variations that have been left but everything else is there.

Intro / Verse
E|---------------------------------|
B|---------------------------------|
G|---------------------------------|
D|------5-----5-----5-----5-----6--|
A|--------------------------5---6--|
E|--3-3---3-3---3-3---3-3-----0-4--|
  PM. .   . .   . .   . .     
                              
E|--------------------------|
B|--------------------------|
G|--------------------------|
D|--8-8-8-8-8---7-7-10-7-7--|
A|--8-8-8-8-8---7-7-10-7-7--|
E|--6-6-6-6-6---5-5--8-5-5--|

Lead #1
E|--------11----13----13-15b-13-15-------11----13-11-13-10--|
B|-----15----15----15-----------------15----15--------------|
G|--12-----------------------------12-----------------------|
D|----------------------------------------------------------|
A|----------------------------------------------------------|
E|----------------------------------------------------------|

E|-----------------------------------|
B|-----------------------------------|
G|-----------------------------------|
D|------5---0-----------0---6---5h6--|
A|----------------6------------------|
E|--3-3---3---3-3---3-3---3---3------|
 |PM. .   .   . .   . .   .   .      |
 |                                   |
E|-----------------------------------|
B|-----------------------------------|
G|-----------------------------------|
D|--0-0-5-0-3-0-0-1-0-0-3-0-6-0-5h6--|
A|-----------------------------------|
E|-----------------------------------|
  PM. .   .   . .   . .   .   .

E|------|------|
B|------|------|
G|------|--8~--|
D|--5~--|--8~--|
A|--5~--|--6~--|
E|--3~--|------|

Lead #2
E|------------------------------------------------------------------|
B|--------------------------------8---------------------------------|
G|---0-0-7-0-0-8-0-0-10-0-7-0-8-0---0-0-7-0-0-8-0-0-10-0-7-0-8-0----|
D|---------------------------------------------------------------8--|
A|------------------------------------------------------------------|
E|------------------------------------------------------------------|
  PM . .   . .   . .    .   .   .    . .   . .   . .    .   .   .

Lead #2 Ending
E|---------------------------------------------|
B|--12-------12--------------------------------|
G|-----7h8p7----7-7h8p7-10-8-7h8p7---7---7-----|
D|---------------------------------8---8-------|
A|-----------------------------------------10--|
E|---------------------------------------------|





Comments


Popular Early Man tabs & chords
Beware The Circling Fin Tabs
Brain Sick Tabs
Brain Sick Intro Tabs
Coiled Like A Snake Tabs
Contra Tabs
Death Is The Answer To My Prayers Tabs
Evil Is Intro Tabs
Feeding Frenzy Tabs
Four Walls Tabs
Thrill Of The Kill Tabs


Song lyrics



↑ Back to top | Tablatures and chords are parodies/interpretations of the original songs. You may use it for private study, scholarship, research or language learning purposes only
© 2014 AZChords.com Contact us | Privacy policy | DMCA | Add/correct tabs | Request tabs | Top 50 tabs