» » »

Early Man, Fight Tabs (ver.1)

Artists:  A B C D E F G H I J K L M N O P Q R S T U V W X Y Z # 

Fight Tabs (ver.1)

Early Man Tabs
 Rating:
4.2/5 (5 votes)
Fight lessons Tabs too difficult? Try these video lessons and learn fast
1
                


Tuning: Standard

I have tabbed out all the parts here. The structure jumps around 
a bit. If you listen to the song its pretty easy to figure out. 



Intro                                                           
E|-------------------------------------------------------------------|---------------|
B|-------------------------------------------------------------------|---------------|
G|--5-7-----5-7-----5-7-----5-7-----5-7-----5-7-----5-7---5-7---7-5--|---------------|
D|--5-7-----5-7-----5-7-----5-7-----5-7-----5-7-----5-7---5-7---7-5--|------3h5------|
A|--3h5-5-5-3h5-5-5-3h5-5-5-3h5-5-5-3h5-5-5-3h5-5-5-3h5-5-3h5-5-5p3--|--3h5-----5p3--|
E|-------------------------------------------------------------------|---------------|
PM      . .     . .     . .     . .     . .     . .     .     .


E|-------------------------------------------------------------------|
B|-------------------------------------------------------------------|
G|-------------------------------------------------------------------|
D|-------------------------------------------------------------------|
A|--1p0-0-0-1p0-0-0-3p0-0-0-1p0-0-0-1p0-0-0-1p0-0-0-3p0-0-0-1p0-0-0--|
E|-------------------------------------------------------------------|
PM      . .     . .     . .     . .     . .     . .     . .     . .


E|-----------------------------------------------------0--------------|
B|--------------------------------------------------------------------|
G|--2------4h5p4h5---------4h5p4h5-7-----------4h5p4-5---5-4-4h5p4h5--|
D|--2-----------------5------------------3----------------------------|
A|--0-0-0---------0---5------------------3----------------------------|
E|--------------------3-0-------------0--1-0-0------------------------|
PM    . .         .     .             .    . .


E|------------------------|
B|------------------------|
G|---4h5p4-4-7-5-4-5-4----|
D|---------------------5--|
A|------------------------|
E|------------------------|


E|-----------------------------------|
B|-----------------------------------|
G|-----------------------------------|
D|-----------------------------------|
A|--0-0-7p6-0-0-5h6-0-0-3h5-0-0-3p2--|
E|-----------------------------------|
PM  . .     . .     . .    . .


E|-----------------------------------|
B|-----------------------------------|
G|-----------------------------------|
D|-----------------------------------|
A|--0-0-7p6-0-0-5h6-0-0-3h5-0-3-0-2--|
E|-----------------------------------|
PM  . .     . .     . .     .   .


E|---------------------------------|
B|---------------------------------|
G|--2-----7/5----------------------|
D|--2-----7/5----------------------|
A|--0-000-5/3-0-5-0-5-0-5-0-0-5-0--|
E|---------------------------------|
PM            . . . . . . . . . .


E|----------------------------------|
B|----------------------------------|
G|--2-----7/5-----------------------|
D|--2-----7/5---8/3-333-333-333-33--|
A|--0-000-5/3-0-8/3-333-333-333-33--|
E|--------------6/1-111-111-111-11--|
PM                  ... ... ... ..
            
Submit corrections

comments powered by Disqus
↑ Back to top | Early Man Tabs for Fight. Lyrics for acoustic guitar and electric guitar. 1 Tablatures and chords are parodies/interpretations of the original songs. You may use it for private study, scholarship, research or language learning purposes only