>
 >
Evil Is

Evil Is Guitar Tabs

Early Man - Evil Is chords, tabs, tablatures, lyrics

Guitar lessons | Add/correct | Request | Top 50 tabs Artists:  A B C D E F G H I J K L M N O P Q R S T U V W X Y Z 0-9

Evil Is Guitar Tabs – Early Man

CD, Sheet music, Poster

Do you like Evil Is? Share with your friends now
Tabs



Tuning: Standard

There are a few minor variations that have been left but everything else is there.

Intro
E|---------------------------------|
B|---------------------------------|
G|----------------5/7---8/7---5/4--|
D|--------7/------5/7---8/7---5/4--|
A|--0-000----0000-3/5-0-6/5-0-3/2--|
E|---------------------------------|
  PM. ...    ....     .     .

E|---------------------------------|
B|---------------------------------|
G|----------------5/7---8---7---5--|
D|--------7/------5/7---8---7---5--|
A|--0-000----0000-3/5-0-6---5---3--|
E|------------------------0---0----|
  PM. ...    ....     .   .   .  


E|----------------------------------|
B|----------------------------------|
G|----------------------------------|
D|---------5h7---3-----3h5---2---3--|
A|--0-0000-----0---0-0-----0---0----|
E|----------------------------------|
  PM. ....     .   . .     .   .

E|----------------------------------|
B|----------------------------------|
G|----------------------------------|
D|---------5h7---3-----3h5---2------|
A|--0-0000-----0---0-0-----0---0-3--|
E|----------------------------------|
  PM. ....     .   . .     .   .

E|----------------------------------------------------------------|
B|----------------------------------------------------------------|
G|---------------------------5------------------------------------|
D|-------------------3-333-3---3-----------5-----------222-22-----|
A|--0-000-000-000-00-------------0-3-333-3---3---0-000--------3/--|
E|---------------------------------------------0------------------|
  PM. ... ... ... .. . ... .       . ... .       . ... ... ..

E|--------------------------------------------------------------------|
B|--------------------------------------------------------------------|
G|--------------------------------------------------------------------|
D|-------------------7---7---7---7---5---5---5---5---------222222-----|
A|--0-000-000-000-00---0---0---0---0---0---0---0---0-0-000--------3/--|
E|--------------------------------------------------------------------|
  PM. ... ... ... ..   .   .   .   .   .   .   .   . . ... ......

E|------------------------------------------------------------------------|
B|------------------------------------------------------------------------|
G|------------------------------------------------------------------------|
D|-------------------10---10---10---10---5---5---5---5---------222222-----|
A|--0-000-000-000-00----0----0----0----0---0---0---0---0-0-000--------3/--|
E|------------------------------------------------------------------------|
  PM. ... ... ... ..   .   .   .   .   .   .   .   . . ... ......

E|--------------------------------|-----------|
B|--------------------------------|-----------|
G|----------7-8------------7-8/7--|-----------|
D|----2-----7-8------2-----7-8/7--|------5h7--|
A|--0---3-0-5-6-0--0---3-0-5-6/5--|--5h7------|
E|--------------------------------|-----------|
  PM      .     .        .     

Solo
E|---------------------------------------------------------------|
B|------8h10-10b-10-8-10-8-10-8-10~--15b-15-13-15-13-15br-13-----|
G|--7h9------------------------------------------------------14--|
D|---------------------------------------------------------------|
A|---------------------------------------------------------------|
E|---------------------------------------------------------------|

E|--------15h17-15----------15h17-15----------15h17-15----------------|
B|--15h17----------17-15h17----------17-15h17----------17-15h17-15h7--|
G|--------------------------------------------------------------------|
D|--------------------------------------------------------------------|
A|--------------------------------------------------------------------|
E|--------------------------------------------------------------------|
  
E|--15h17-15----15h17-15----15h17-15----15h17-15----15h17-15----17b--|
B|-----------17----------17----------17----------17----------17------|
G|-------------------------------------------------------------------|
D|-------------------------------------------------------------------|
A|-------------------------------------------------------------------|
E|-------------------------------------------------------------------|
  
E|--17--15-17-15-17-15-17~--|
B|--------------------------|
G|--------------------------|
D|--------------------------|
A|--------------------------|
E|--------------------------|


E|-----------|-----------|
B|-----------|-----------|
G|--2---2-2--|-----------|
D|--2---2-2--|--3---3-3--|
A|--0---0-0--|--3---3-3--|
E|-----------|--1---1-1--|

E|---------------------------|---------------------------|
B|---------------------------|---------------------------|
G|--2---2-2------------------|---------------------------|
D|--2---2-2------------------|--3---3-3------------------|
A|--0---0-0-5-5-3-3-2-2-3-3--|--3---3-3-5-5-3-3-2-2-3-3--|
E|---------------------------|--1---1-1------------------|
  PM        . . . . . . . .             . . . . . . . .





Comments


Popular Early Man tabs & chords
Brain Sick Tabs
Brain Sick Intro Tabs
Coiled Like A Snake Tabs
Contra Tabs
Death Is The Answer To My Prayers Tabs
Feeding Frenzy Tabs
Fist Shaker Tabs
I Wanna Set You On Fire Tabs
More To Me Than Meat And Eyes Tabs
Sinking The Blade Tabs


Song lyrics



↑ Back to top | Tablatures and chords are parodies/interpretations of the original songs. You may use it for private study, scholarship, research or language learning purposes only
© 2014 AZChords.com Contact us | Privacy policy | DMCA | Add/correct tabs | Request tabs | Top 50 tabs