» » »

Early Man, Death Is The Answer To My Prayers Tabs (ver.1)

Artists:  A B C D E F G H I J K L M N O P Q R S T U V W X Y Z # 

Death Is The Answer To My Prayers Tabs (ver.1)

Early Man Tabs
 Rating:
4/5 (6 votes)
Death Is The Answer To My Prayers lessons Tabs too difficult? Try these video lessons and learn fast
                


Tuning: Standard

There are a few minor variations that have been left but everything else is there.


E|----------------------------------------------------------------------|
B|----------------------------------------------------------------------|
G|-------------------------------------------------------------6/8------|
D|--------6/8-8~-8~-8~---6/8-8~-8~-8~---6/8-8~-8~-8~---6/8-----6/8------|
A|--------6/8-8~-8~-8~---6/8-8~-8~-8~---6/8-8~-8~-8~---6/8-----4/6------|
E|--12/---4/6-6~-6~-6~-0-4/6-6~-6~-6~-0-4/6-6~-6~-6~-0-4/6-0-0-----0-0--|


E|---------------------------------------------------------------|
B|---------------------------------------------------------------|
G|-----------------------------------------------11/8-8-8/9/8-6--|
D|--6/8-8~-8~-8~---6/8-8~-8~-8~---6/8-8~-8~-8~---11/8-8-8/9/8-6--|
A|--6/8-8~-8~-8~---6/8-8~-8~-8~---6/8-8~-8~-8~----9/6-6-6/7/6-4--|
E|--4/6-6~-6~-6~-0-4/6-6~-6~-6~-0-4/6-6~-6~-6~-0-----------------|


E|-----------------------------------------|
B|-----------------------------------------|
G|-----------------------------------------|
D|--6/8-8~-8~-8~---6h8p6p0--4-4h6p4p0-3----|
A|--6/8-8~-8~-8~------------------------4--|
E|--4/6-6~-6~-6~-0-------------------------|

 
E|----------------------------------|-------------------|
B|----------------------------------|-------------------|
G|----------------------------------|--------------6-5--|
D|--6/8-8~-8~-8~---6h8p6p0-4-4/6-6--|--6h8p6p0-4/6------|
A|--6/8-8~-8~-8~--------------------|-------------------|
E|--4/6-6~-6~-6~-0------------------|-------------------|


E|--------------|
B|--------------|
G|--------------|
D|--8~~~--8~~~--|
A|--8~~~--8~~~--|
E|--6~~~--6~~~--|

E|------------------------------------------------|
B|------------------------------------------------|
G|--------6-----8-----------6---------------------|
D|--8-----6-----8-----8-----6-----8---4---4---4/--|
A|--8-----4-----6-----8-----4-----8---4---4---4/--|
E|--6-0-0---0-0---0-0-6-0-0---0-0-6-0-2-0-2-0-2/--|
PM    . .   . .   . .   . .   . .   .   .   .

E|---------------------------------------------------------------|
B|---------------------------------------------------------------|
G|---------------------------------------------------------------|
D|--8-----8-----8-----8-----8-----8---8-------0h6h8-------0h6h8--|
A|--8-----8-----8-----8-----8-----8---8-0h6h8-------0h6h8--------|
E|--6-6-6-6-6-6-6-6-6-6-6-6-6-6-6-6-6-6--------------------------|
PM    . .   . .   . .   . .   . .   .

E|--------------------------------------------------|
B|--------------------------------------------------|
G|--------------------------------------------------|
D|--------8-----8-----8-----8-----8---8-------6-----|
A|--------8-----8-----8-----8-----8---8-0h6h8---8/--|
E|--6-6-6-6-6-6-6-6-6-6-6-6-6-6-6-6-6-6-------------|
PM  . . .   . .   . .   . .   . .   .  

E|------------------------------------------------|
B|------------------------------------------------|
G|-----------------------------------6~~~--5-5-5--|
D|--8/-------6-8/-------6-8/-------6-6~~~--5-5-5--|
A|--8/-------6-8/-------6-8/-------6-4p04--3-3-3--|
E|--6/-0-0-0-4-6/-0-0-0-4-6/-0-0-0-4--------------|
PM     . . .      . . .      . . .

E|------------------------------------------------|
B|------------------------------------------------|
G|-----------------------------------6~~~--8-8-8--|
D|--8/-------6-8/-------6-8/-------6-6~~~--8-8-8--|
A|--8/-------6-8/-------6-8/-------6-4p04--6-6-6--|
E|--6/-0-0-0-4-6/-0-0-0-4-6/-0-0-0-4--------------|
PM     . . .      . . .      . . . 

E|----------------|
B|----------------|
G|----------------|
D|--4~-4/6-6-3~~--|
A|--4~-4/6-6-3~~--|
E|--2~-2/4-4-1~~--|

E|---------------------------------------|------|
B|---------------------------------------|------|
G|---------------------------------------|------|
D|--8~-8~-8~-8~-8~-8~-8~-8~-4~-4~-3~-6~--|--8~--|
A|--8~-8~-8~-8~-8~-8~-8~-8~-4~-4~-3~-6~--|--8~--|
E|--6~-6~-6~-6~-6~-6~-6~-6~-2~-2~-1~-4~--|--6~--|
            
Submit corrections

comments powered by Disqus
↑ Back to top | Early Man Tabs for Death Is The Answer To My Prayers. Lyrics for acoustic guitar and electric guitar. Tablatures and chords are parodies/interpretations of the original songs. You may use it for private study, scholarship, research or language learning purposes only