» » »

Early Man, Contra Tabs (ver.1)

Artists:  A B C D E F G H I J K L M N O P Q R S T U V W X Y Z # 

Contra Tabs (ver.1)

Early Man Tabs
Rating:
4/5 (3 votes)
Contra lessons Tabs too difficult? Try these video lessons and learn fast
                


Tuning: Standard

There are a few minor variations that have been left but everything else is there.

Into
E|----------------------------------------------------------------------|------------|
B|----------------------------------------------------------------------|------------|
G|--2---------------------------------2---------------------------------|------------|
D|--2-----------7---5---3---2-2h3p2p0-2----------3----------------------|--3-2-3-5/--|
A|--0---0-5h7-0---0---0---0-----------0--0-5h7-0---0-5-7-0-3-5-0-2-3-0--|------------|
E|----------------------------------------------------------------------|------------|

Verse
E|-------------------------------------------------------------|
B|-------------------------------------------------------------|
G|--2-----5/7---3-2--------------2-----5/7---3-2---------------|
D|--2-----5/7---3-2--------------2-----5/7---3-2---------------|
A|--0-0-0-3/5-0-1-0--1-0-3-0-1-0-0-0-0-3/5-0-1-0--1-3-1-0-1-3--|
E|-------------------------------------------------------------|


E|---------------|---------------|---------|
B|---------------|---------------|---------|
G|---------------|---------------|---------|
D|--------2------|--------5------|---------|
A|--0-2-3---3-2--|--0-2-3---3-2--|--0-2-3--|
E|---------------|---------------|---------|
  PM. . .   . .     . . .   . .     . . .

Lead A                                                           Last Time
E|-------------------------------------------------------------|-------------|
B|------------------------------------10br----12br--p10----10--|--p10-12-10--|
G|-----------9br-9-9br---------------------12-----------12-----|-------------|
D|--7--9-7-9-----------10p9-7--9-7-9---------------------------|-------------|
A|-------------------------------------------------------------|-------------|
E|-------------------------------------------------------------|-------------|

Riff Under Lead A
E|---------------------------------------------------|---------------|
B|---------------------------------------------------|---------------|
G|---------------------------------------------------|---------------|
D|--------7\-------2h3p2-------7/-------2h3p2--------|----5p3p2------|
A|--0-000----0-000-------0-000----0-000-------2h3p2--|--0-------3-0--|
E|---------------------------------------------------|---------------|
  PM. ...    . ...       . ...    . ...                 .

Lead B
E|------------------------|
B|--10-12-10-12-13-15-17--|
G|------------------------|
D|------------------------|
A|------------------------|
E|------------------------|

Riff Under Lead B 
E|-------------------------------------------------------|
B|-------------------------------------------------------|
G|------------------------2-------2-------2--------------|
D|------------------------2-------2-------2---5-3-2------|
A|----3-5-3-0-3-5-7-0-000-0-0-000-0-0-000-0-0-------3-0--|
E|--1----------------------------------------------------|
  PM                . ...   . ...   . ...   .
            

comments powered by Disqus
↑ Back to top | Early Man Tabs for Contra. Lyrics for acoustic guitar and electric guitar. Tablatures and chords are parodies/interpretations of the original songs. You may use it for private study, scholarship, research or language learning purposes only