» » »

Early Man, Coiled Like A Snake Tabs (ver.1)

Artists:  A B C D E F G H I J K L M N O P Q R S T U V W X Y Z # 

Coiled Like A Snake Tabs (ver.1)

Early Man Tabs
 Rating:
4.2/5 (5 votes)
Coiled Like A Snake lessons Tabs too difficult? Try these video lessons and learn fast
                


Tuning: Standard

There are a few minor variations that have been left but everything else is there.

Intro
E|-----------------------------------------------------------------|
B|-----------------------------------------------------------------|
G|-----------------------------------------------------------------|
D|------5h7---5h7---5h7---5h7---3-----3p2---3p2--------------------|
A|--0-0-----0-----0-----0-----0---0-0-----0-----0-5p3-0-5p3-0-5p3--|
E|-----------------------------------------------------------------|
PM  . .     .     .     .     .   . .     .     .     .     .

Verse
E|-----------------------------------|
B|-----------------------------------|
G|-----------------------------------|
D|------------------------5-7-3------|
A|--0-0-0-0-0-0-0-0-0h5h7------------|
E|-----------------------------------|
 |PM. . . . . . . .                  |
E|-----------------------------------|
B|-----------------------------------|
G|-----------------------------------|
D|------------------------5/3/0------|
A|--0-0-0-0-0-0-0-0-0h5h7-------3p0--|
E|-----------------------------------|
 |PM. . . . . . . .                  |
E|-----------------------------------|
B|-----------------------------------|
G|-----------------------------------|
D|------------------------------7----|
A|--0-0-0-0-0-0-0-0-0h3h5-6p5p0-7----|
E|------------------------------5----|
PM  . . . . . . . . 

E|---------------------------------------------------|
B|---------------------------------------------------|
G|--------2-----------3-----------4-----------5------|
D|--3p2p0-2-----3p2p0-3-----3p2p0-4-----3p2p0-5------|
A|--------0-0-0-------1-0-0-------2-0-0-------3-0-0--|
E|---------------------------------------------------|

Lead #1
E|-----------15b----------16b----------17b----------18b--|
B|--------15-----------15-----------15-----------15------|
G|--14h16--------14h16--------14h16--------14h16---------|
D|-------------------------------------------------------|
A|-------------------------------------------------------|
E|-------------------------------------------------------|


E|-------------------------------------------------------------|
B|-------------------------------------------------------------|
G|-----------------------------------------------5-----7-------|
D|----------------------7p5---7/---------------3-----5-----7/--|
A|--0-0-0-0-0-0-0h5h7-0-----0 ---0-0-0-0-0-0-0-----0-----0-----|
E|-------------------------------------------------------------|
PM  . . . . . .       .     .    . . . . . . . . . . . . .  

Lead #2
E|--0-10-12-0-10-12-0-12-0-10-13-0-10-13-0-13-0-7-8-0-7-8-0-10-0-7-8-0-8-7-3-0--|
B|------------------------------------------------------------------------------|
G|------------------------------------------------------------------------------|
D|------------------------------------------------------------------------------|
A|------------------------------------------------------------------------------|
E|------------------------------------------------------------------------------|


E|----------------------------------------|
B|----------------------------------------|
G|----------------------------------------|
D|------10p7---10p7---10p7---10p7---10p7--|
A|--0-0------0------0------0------0-------|
E|----------------------------------------|
 |PM. .      .      .      .      .       |
E|----------------------------------------|
B|----------------------------------------|
G|----------------------------------------|
D|------9p7---9p7---9p7---9p7---9p7-------|
A|--0-0-----0-----0-----0-----0-----------|
E|----------------------------------------|
 |PM. .     .     .     .     .           |
E|----------------------------------------|
B|----------------------------------------|
G|----------------------------------------|
D|------5p3---5p3---5p3---5p3---5p3-------|
A|--0-0-----0-----0-----0-----0-----------|
E|----------------------------------------|
 |PM. .     .     .     .     .           |
E|----------------------------------------|
B|----------------------------------------|
G|----------------------------------------|
D|------3p2---3p2-------------------------|
A|--0-0-----0-----0-5p3-0-5p3-0-5p3-------|
E|----------------------------------------|
  PM. .     .     .     .     .
            
Submit corrections

comments powered by Disqus
↑ Back to top | Early Man Tabs for Coiled Like A Snake. Lyrics for acoustic guitar and electric guitar. Tablatures and chords are parodies/interpretations of the original songs. You may use it for private study, scholarship, research or language learning purposes only