» » »

Early Man, Brain Sick Tabs (ver.1)

Artists:  A B C D E F G H I J K L M N O P Q R S T U V W X Y Z # 

Brain Sick Tabs (ver.1)

Early Man Tabs
Rating:
5/5 (1 vote)
Brain Sick lessons Tabs too difficult? Try these video lessons and learn fast
                


Tuning: Standard

There are a few minor variations that have been left but everything else is there.

E|---------------------------------------------------|
B|--12-12-12-12-12-12-12-12-12-12-12-12-12-12-12-12--|
G|---------------------------------------------------|
D|---------------------------------------------------|
A|---------------------------------------------------|
E|---------------------------------------------------|

E|-------------------------------14-------------|
B|--0-12-13-0-12-15-0-12-13-0-12----0-12-13-12--|
G|----------------------------------------------|
D|----------------------------------------------|
A|----------------------------------------------|
E|----------------------------------------------|

E|-------------------------------14-----------|
B|--0-12-13-0-12-15-0-12-13-0-12----0-12-13~--|
G|--------------------------------------------|
D|--------------------------------------------|
A|--------------------------------------------|
E|--------------------------------------------|

Riff Under Into Lead
E|-----------------|
B|-----------------|
G|--4---2----------|
D|--4---2---5---7--|
A|--2---0---5---7--|
E|----------3---5--|

E|------------------------------------------------------------------|
B|------------------------------------------------------------------|
G|--7-----7-----7-----7-----7---7---5-----5-----3-----3-----2---2/--|
D|----0-0---0-0---0-0---0-0---0---0---0-0---0-0---0-0---0-0---0-----|
A|------------------------------------------------------------------|
E|------------------------------------------------------------------|
  PM  . .   . .   . .   . .   .   .   . .   . .   . .   . .   .

E|---------------------------------------------------------|
B|---------------------------------------------------------|
G|---------------------------------------------------------|
D|--3p0-----------1p0---------------------6-------6-----6--|
A|------0-0-3h5-0-----0-3h5-0-3h5-0-------5-------5-----5--|
E|----------------------------------4-4-4---4-4-4---4-4----|
  PM    . .     .     .     .     . . . .   . . .   . . 

E|-------------------------------------------|
B|-------------------------------------------|
G|-------------------------------------------|
D|--5---------8---------7---------6----------|
A|--5-----5h6-8-----5h6-7-----5h6-6-----5h6--|
E|--3-0-0-----6-0-0-----5-0-0-----4-0-0------|
  PM  . .       . .       . .       . .

E|---------------------------------------------------------------------|
B|---------------------------------------------------------------------|
G|---------------------------------------------------------------------|
D|----------------------------------------------------6/5---6/5---6/5--|
A|----------------------------------------------------4/3---4/3---4/3--|
E|--3-333-333-333-333-333-333-333-33-4p3-3-333-333-3------3-----3------|
  PM. ... ... ... ... ... ... ... ..     . ... ... .      .     .

E|------------------------------------------------------------|
B|------------------------------------------------------------|
G|------------------------------------------------------------|
D|------5-------5-----5-----5-------5-----5--6/5---6/5---6/5--|
A|------4-----4-------4-------4-----4-----4--4/3---4/3---4/3--|
E|--3-3---3-3-----3-3---3-3-----3-3---3-3--------3-----3------|
  PM. .   . .     . .   . .     . .   . .        .     .

E|-------------------|
B|-------------------|
G|-------------------|
D|----------6p5------|
A|--4p3---------6p5--|
E|------4p3----------|

End On
E|------|
B|------|
G|------|
D|--5~--|
A|--5~--|
E|--3~--|
            

comments powered by Disqus
↑ Back to top | Early Man Tabs for Brain Sick. Lyrics for acoustic guitar and electric guitar. Tablatures and chords are parodies/interpretations of the original songs. You may use it for private study, scholarship, research or language learning purposes only