>
 >
Beware The Circling Fin

Beware The Circling Fin Guitar Tabs

Early Man - Beware The Circling Fin chords, tabs, tablatures, lyrics

Guitar lessons | Add/correct | Request | Top 50 tabs Artists:  A B C D E F G H I J K L M N O P Q R S T U V W X Y Z 0-9

Beware The Circling Fin Guitar Tabs – Early Man

CD, Sheet music, Poster

Do you like Beware The Circling Fin? Share with your friends now
Tabs



Tuning: Standard

There are a few minor variations that have been left but everything else is there.
I didn't tab out the Whammy  bar solo, just play whatever.

Intro
E|---------------------------------------------------------------------|
B|---------------------------------------------------------------------|
G|------------------------------------------------------10/9-----10/9--|
D|--5-8---------------5-------------5-8-----------------10/9-----10/9--|
A|------7-----------7---7---------------7----------------8/7------8/7--|
E|--------0-0-3p0-0-------0-0-3p0-0-------0-0-3p0-0-0-0------0-0-------|
PM        . .     .       . .     .       . .     . . .      . .

E|-----------|    |------------------------------------|
B|-----------|    |------------------------------------|
G|-----------|    |------------------------------------|
D|-----------|X12 |-------------------------10p9-------|
A|------8p7--|    |-----7-10-9-6-8p7-10-9p7------10p9--|
E|--0-0------|    |-0-0--------------------------------|
PM  . .              . .

E|-----------------------------------|
B|-----------------------------------|
G|-----------------------------------|
D|----------------------------7-5-7--|
A|--7~-5~-3~-5-3-5--7~-5~-3~---------|
E|-----------------------------------|
                              
E|------------------------------------------------------|
B|------------------------------------------------------|
G|--9------9------7------7------5------5------7-5-7-----|
D|--9------9------7------7------5------5------7-5-7-----|
A|--7-7777-7-7777-5-5555-5-5555-3-3333-3-3333-5-3-5-----|
E|------------------------------------------------------|
 |PM  ....   ....   ....   ....   ....   ....           |
 |                                                      |
E|------------------------------------------------------|
B|------------------------------------------------------|
G|--9------9------7------7------5------5----------------|
D|--9------9------7------7------5------5------7-5-7-4~--|
A|--7-7777-7-7777-5-5555-5-5555-3-3333-3-3333-------4~--|
E|--------------------------------------------------2~--|
  PM  ....   ....   ....   ....   ....   ....


E|------------------------------------|--------------------|
B|------------------------------------|--------------------|
G|------------------------------------|--9-7---7-----------|
D|------------------------------------|------9---9-8-------|
A|--8p7-------------------------------|--------------10-7--|
E|------0-0-3p0-0-0-5h6-0-0-1p0--0-0--|--------------------|
  PM    . .     . .     . .      . .

E|----------------------------|---------------------------------------------|
B|----------------------------|---------------------------------------------|
G|--9/7/9--4-5----------------|---------------------------------------------|
D|--9/7/9--4-5----------------|--7----5----4----5----7----5----4----5----2--|
A|--7/5/7--2-3-000-000-000-0--|--7----5----4----5----7----5----4----5----2--|
E|----------------------------|--5-00-3-00-2-00-3-00-5-00-3-00-2-00-3-00-0--|
  PM           ... ... ... .       ..   ..   ..   ..   ..   ..   ..   ..


E|-------------------------------------------------------------------|
B|-------------------------------------------------------------------|
G|-------------------------------------------------------------------|
D|-------------------------------------------------------------------|
A|----------------------------------------------------------2p1------|
E|--0-0-0-1p0-0-0-1p0-0-0-1p0-0-0-3p0-0-0-3p0-0-0-3p0-0-3-0-----2p1--|
  PM  . .     . .     . .     . .     . .     . .     .   .

E|-------------------------------------|
B|-------------------------------------|
G|--9--9/12-x--9--9/12-x-5--5/7--4--7--|
D|--9--9/12-x--9--9/12-x-5--5/7--4--7--|
A|--7--7/10-x--7--7/10-x-3--3/5--2--5--|
E|-------------------------------------|

Lead
E|--------------|---------3-5b-5*-3-2-3-2h3p2p0--|
B|--5p3h5--0-1--|--5p3h5-------------------------|
G|--------------|--------------------------------|
D|--------------|--------------------------------|
A|--------------|--------------------------------|
E|--------------|--------------------------------| 





Comments


Popular Early Man tabs & chords
Brain Sick Tabs
Evil Is Intro Tabs
Feeding Frenzy Tabs
I Wanna Set You On Fire Tabs
Like A Goddamn Rat Tabs
More To Me Than Meat And Eyes Tabs
Raped And Pillaged Tabs
Sinking The Blade Tabs
The Undertaker Is Calling You Tabs
War Eagle Tabs


Song lyrics



↑ Back to top | Tablatures and chords are parodies/interpretations of the original songs. You may use it for private study, scholarship, research or language learning purposes only
© 2014 AZChords.com Contact us | Privacy policy | DMCA | Add/correct tabs | Request tabs | Top 50 tabs