» » »

Sos Tabs (ver.1)

Artists:  A B C D E F G H I J K L M N O P Q R S T U V W X Y Z # 

Sos Tabs (ver.1)

Earl Greyhound
Rating:
4/5 (1 vote)

Hard to play? Try these video lessons and learn fast.
                This is the beginning part to Earl Greyhound's "SOS",
but should repeat through most of the song

Listen to song for rhythm 

             |----------x-x-x-x----------x-x----------x-x----------x-x-x-x-x|
             |----------x-x-x-x----------x-x----------x-x----------x-x-x-x-x|
             |----------x-x-x-x----------x-x----------x-x----------x-x-x-x-x|
             |---2--2---x-x-x-x---2--2---x-x---2--2---x-x---7--7---x-x-x-x-x|
             |---2--2---x-x-x-x---2--2---x-x---2--2---x-x---7--7---x-x-x-x-x|
             |---0--0---x-x-x-x---0--0---x-x---0--0---x-x---5--5---x-x-x-x-x|


             |-------x-----x-----|
             |-------x-----x-----|
             |-------x-----x-----|
             |----5--x--4--x--3--|
             |----5--x--4--x--3--|
             |----3--x--2--x--1--|
            
Hard to play? Try these video lessons and learn fast. | Correct




comments powered by Disqus
↑ Back to top | Tablatures and chords are parodies/interpretations of the original songs. You may use it for private study, scholarship, research or language learning purposes only