» » »

Earl Greyhound, Like A Doggy Tabs (ver.1)

Artists:  A B C D E F G H I J K L M N O P Q R S T U V W X Y Z # 

Like A Doggy Tabs (ver.1)

Earl Greyhound Tabs
Rating:
0/5 (0 votes)
Like A Doggy lessons Tabs too difficult? Try these video lessons and learn fast
                Intro:
e---------------------------------------------------------------------------|
b---------------------------------------------------------------------------|
g--11-11-11-11p9-9-9-9-9-9-9-9-9-9-11-11-11-11-11-11-11-11-11---------------|
d-------------------------------------------------------------12------------|
a---------------------------------------------------------------------------|
e---------------------------------------------------------------------------|

Bridge (w/ delay pedal):
e---------------------------------------------------------------------------|
b---------------------------------------------------------------------------|
g------------------7-7-7-5-5-5-5-------------------7-7-7-5-5-5-5------------|
d--5-5-5-7-7-7-7---7-7-7-5-5-5-5---5-5-5-7-7-7-7---7-7-7-5-5-5-5------------|
a--5-5-5-7-7-7-7---5-5-5-3-3-3-3---5-5-5-7-7-7-7---5-5-5-3-3-3-3------------|
e--3-3-3-5-5-5-5-------------------3-3-3-5-5-5-5----------------------------|

Verse:
e---------------------------------------------------------------------------|
b---------------------------------------------------------------------------|
g---------------------------------------------------------------------------|
d--5-5-5-5-5-5-5-5-7-7-7-7-7-7-7-7-5-5-5-5-5-5-5-5-7-7-7-7-7-7-7-7-5-5-5-5--|
a--5-5-5-5-5-5-5-5-7-7-7-7-7-7-7-7-5-5-5-5-5-5-5-5-7-7-7-7-7-7-7-7-5-5-5-5--|
e--3-3-3-3-3-3-3-3-5-5-5-5-5-5-5-5-3-3-3-3-3-3-3-3-5-5-5-5-5-5-5-5-3-3-3-3--|

e---------------------------------------------------------------------------|
b---------------------------------------------------------------------------|
g--------------------------7-7----------------------------------------------|
d--5-5-5-5-7-7-7-7-7-7-7-7-7-7-5-5-4-4-2-2----------------------------------|
a--5-5-5-5-7-7-7-7-7-7-7-7-5-5-5-5-4-4-2-2----------------------------------|
e--3-3-3-3-5-5-5-5-5-5-5-5-----3-3-2-2-0-0----------------------------------|

Chorus:
e---------------------------------------------------------------------------|
b---------------------------------------------------------------------------|
g----------------7-7-7-5-5-5-5---------------7-7-7-5-5-5-5---------5-5-5-5--|
d--5-5-5-7-7-7-7-7-7-7-5-5-5-5-5-5-5-7-7-7-7-7-7-7-5-5-5-5-7-7-7-7-5-5-5-5--|
a--5-5-5-7-7-7-7-5-5-5-3-3-3-3-5-5-5-7-7-7-7-5-5-5-3-3-3-3-7-7-7-7-3-3-3-3--|
e--3-3-3-5-5-5-5---------------3-3-3-5-5-5-5---------------5-5-5-5----------|
            

comments powered by Disqus
↑ Back to top | Earl Greyhound Tabs for Like A Doggy. Lyrics for acoustic guitar and electric guitar. Tablatures and chords are parodies/interpretations of the original songs. You may use it for private study, scholarship, research or language learning purposes only