» » »

Eagles Of Death Metal, Wanna Be In La Tabs (ver.4)

Artists:  A B C D E F G H I J K L M N O P Q R S T U V W X Y Z # 

Wanna Be In La Tabs (ver.4)

Eagles Of Death Metal Tabs
 Rating:
4/5 (4 votes)
Wanna Be In La lessons Tabs too difficult? Try these video lessons and learn fast
1
                -------------------------------------------------------------------------------
WANNA BE IN LA- Eagles of Death Metal
-------------------------------------------------------------------------------

Tuning: EADGBe (Standard)

This tab is accurate except for the second-ish half of the solo. I just tabbed out what 
good
VERSE:
e|---------------------------------------------------------------------------|
B|---------------------------------------------------------------------------|
G|---------------------------------------------------------------------------|
D|---------------------------------------------------------------------------|
A|-8h10-10/13-13-11-13/15-13-15-13-15-13-13\8--------------------------------|
E|-6-6--6-/9--9--9--9-/11-11-11-11-11-11-11\6--------------------------------|

Play verse 6 times, and on the end of the seventh, play:
e|---------------------------------------------------------------------------|
B|---------------------------------------------------------------------------|
G|---------------------------------------------------------------------------|
D|---------------------------------------------------------------------------|
A|-8h10-10/13-13-11-13/15-15-15-12-12-12-11-11-11-11-11-11-11-8--------------|
E|-6-6--6-/9--9--9--9-/11-11-11-10-10-10-9--9--9--9--9--9--9--6--------------|

Play verse 5 more times with ending.
=========================================================================================

SOLO: I’m pretty sure that the solo is on the F pentatonic minor scale, so play around 
that area and it should sound fine.
e|---------------------------------------------------------------------------|
B|---------------------------------------------------------------------------|
G|-/15-15-15----15p13-----------------------------13~----13-15p13------------|
D|--------------------15-12-12~----------11-13/15-----------------13-15-11---|
A|---------------------------------11-13-----------------------------------13|
E|---------------------------------------------------------------------------|

e|-----------------------------------------------11-16b-16b------------------|
B|-------14-16-16-16-16~16-16-16p14--------14-16-----------------------------|
G|-13-15----------------------------15---------------------------------------|
D|----------------------------------------------------------13-15-15p13-11---|
A|-------------------------------------------------------------------------13|
E|---------------------------------------------------------------------------|
                                                           (let last note ring)


Repeat the verse for the rest of the song, and end on this chord:

e|------|
B|------|
G|------|
D|--8---|
A|--8---|
E|--6---|

LEGEND
| /  slide up
| \  slide down
| h  hammer-on
| p  pull-off
| ~  vibrato
| +  harmonic
| x  Mute note
===============================================================================
            
Submit corrections

comments powered by Disqus
↑ Back to top | Eagles Of Death Metal Tabs for Wanna Be In La. Lyrics for acoustic guitar and electric guitar. 1 Tablatures and chords are parodies/interpretations of the original songs. You may use it for private study, scholarship, research or language learning purposes only