» » »

Eagles Of Death Metal, Wanna Be In La Tabs (ver.2)

Artists:  A B C D E F G H I J K L M N O P Q R S T U V W X Y Z # 

Wanna Be In La Tabs (ver.2)

Eagles Of Death Metal Tabs
 Rating:
3.4/5 (9 votes)
Wanna Be In La lessons Tabs too difficult? Try these video lessons and learn fast
1
                This is for those for don't want to tune it weird.
It's a funny timing at the start, i just play two nines here live.
INTRO                                       \/  \/
e|-------------------------------------------------------------------|
B|-------------9----------------------------9---9---9----------------|
G|----8---10-----------------------8---10---------------8---10-------|
D|-------------------------------------------------------------------|x2
A|-------------------------------------------------------------------|
E|-------------------------------------------------------------------|

INTRO (part 2)
e|-------------------------------------------------------------------|
B|-------------9------------9---------------9---9---9----------------|
G|----8---10-------8---10----------8---10---------------8---10-------|
D|-------------------------------------------------------------------|x2
A|-------------------------------------------------------------------|
E|-------------------------------------------------------------------|


MAIN RIFF
e|-------------------------------------------------------------------|
B|-------------------------------------------------------------------|
G|----------------------------------8---8---8---8---8---8---*--------|
D|--8---8---8---8---11--11--11--11--8---8---10--8---10--8---*--------|x6
A|--8---8---10--8---11--11--13--11--6---6---6---6---6---6---*--------|
E|--6---6---6---6---9---9---9---9------------------------------------|

MAIN RIFF END
e|-------------------------------------------------------------------|
B|-------------------------------------------------------------------|
G|----------------------------------8---8---8---7---7---7---7--------|
D|--8---8---8---8---11--11--11--11--8---8---8---7---7---7---7--------|
A|--8---8---10--8---11--11--13--11--6---6---6---5---5---5---5--------|
E|--6---6---6---6---9---9---9---9------------------------------------|

e|-------------------------------|
B|-------------------------------|
G|-------------------------------|
D|--11--11--11--11--11--11--11--8| the last chord is the start of the next
A|--11--11--13--11--14--11--13--8| main riff.
E|--9---9---9---9---9---9---9---6|

MAIN RIFF x4
MAIN RIFF END x1
Then there's a solo which is improvised every time he plays it, but there is a version 
another tab. Use a Z-vex woolly Mammoth for the sound.
After that there's a bass interlude which does the main bass riff 4 times through.
INTRO (part 2) x2 (this is all tabbed for one guitar when there are two, so this 
the next part, feel free to play this for two extra bars)

EXTRA RIFF
e|---------------------------------|
B|---------------------------------|
G|---------------------------------|
D|----8-8-8-8---8\6----------------|x6
A|--------------------6-6-6-6---6\4|
E|---------------------------------|

MAIN RIFF END x1
MAIN RIFF x3
MAIN RIFF END x1

END
e|-------------------------------------------------------------------|
B|-------------------------------------------------------------------|
G|-------------------------------------------------------------------|
D|--8---8---8---8---8---8---8---11--11--11--11--11--11--11-----------|
A|--8---8---10--8---11--8---10--11--11--13--11--14--11--13-----------|
E|--6---6---6---6---6---6---6---9---9---9---9---9---9---9------------|

e|----------------------------|
B|----------------------------|
G|----------------------------|
D|--8---8---8---8---8---8---8-|
A|--8---8---10--8---11--8---10|
E|--6---6---6---6---6---6---6-|

e|--------------------------------------------|
B|--------------------------------------------|
G|--------------------------------------------|
D|--11--11--11--11--11------11--11--11--11--14|
A|--11--11--13--11--14------11--11--13--11--14|
E|--9---9---9---9---9-------9---9---9---9---9-|

e|--------------------------------------------|
B|--------------------------------------------|
G|--------------------------------------------|
D|--11--11--11--11--11--11--11--8-------------|
A|--11--11--13--11--14--11--13--8-------------|
E|--9---9---9---9---9---9---9---6-------------|

I came to LA to make rock n Roll
Along the way i had to sell my soul
I made some good friends that make me say
I really wanna be in LA

I took the ten to get to Beverly
Laid some rock to tape Roll at 11AD
Alain & Natasha always make me say
I really wanna be in LA

I take the city in the dead of night
I'm burnin gas until I feel alright
My sunset honeys always make me say
I really wannaBe in LA
            
Submit corrections

comments powered by Disqus
↑ Back to top | Eagles Of Death Metal Tabs for Wanna Be In La. Lyrics for acoustic guitar and electric guitar. 1 Tablatures and chords are parodies/interpretations of the original songs. You may use it for private study, scholarship, research or language learning purposes only