» » »

Eagles Of Death Metal, Secret Plans Tabs (ver.3)

Artists:  A B C D E F G H I J K L M N O P Q R S T U V W X Y Z # 

Secret Plans Tabs (ver.3)

Eagles Of Death Metal Tabs
Rating:
4/5 (2 votes)
Secret Plans lessons Tabs too difficult? Try these video lessons and learn fast
                -------------------------------------------------------------------------------
                             SECRET PLANS - Eagles of Death Metal
-------------------------------------------------------------------------------

Tuning: Standard

Intro/verses: 

just repeat this part, play around with it a bit to your own interpretation

e|--------------------------------------------------------------|
B|--------------------------------------------------------------|
G|--------------------------------------------------------------|
D|--3--3-5-3-3-3-5-3-3-3-5-3-3-3-5-5--5-7-5-5-5-7-6--6-8-6-8-6--|
A|--1--1-1-1-1-1-1-1-1-1-1-1-1-1-1-3--3-3-3-3-3-3-4--4-4-4-4-4--|
E|--------------------------------------------------------------|

Chorus: 

e|--------------------------------------------------------------|
B|--------------------------------------------------------------|
G|--------------------------------------------------------------|
D|---------------------1h3-1------------------------------------|  
A|--1--1-3h4-3----4--4-----------1-1--1-1--1-1--1-1--1-1--------|
E|------------------------------4----4----4----4----4-----------|

play this part twice for the chorus, and then after the last chorus, play this:

e|--------------------------------------------------------------|
B|--------------------------------------------------------------|
G|--------------------------------------------------------------|
D|---------------------1h3-1-----------------------1h3-1--------|  
A|--1--1-3h4-3----4--4----------1--1-3h4-3----4--4--------------|
E|----------------------------4---------------------------------|


e|--------------------------------------------------------------|
B|--------------------------------------------------------------|
G|--------------------------------------------------------------|
D|-----------------------1h3-1-----------------------1h3-1------|
A|----1--1-3h4-3----4--4----------1--1-3h4-3----4--4------------|
E|--4---------------------------4-------------------------------|

e|---------------------------------|
B|---------------------------------|
G|---------------------------------|
D|---------------------------------|
A|---1-1--1-1--1-1--1--------------|
E|--4----4----4----4---------------|

And that's it! Another simple but great song by the Eagles of Death Metal.
            
Submit corrections

comments powered by Disqus
↑ Back to top | Eagles Of Death Metal Tabs for Secret Plans. Lyrics for acoustic guitar and electric guitar. Tablatures and chords are parodies/interpretations of the original songs. You may use it for private study, scholarship, research or language learning purposes only