» » »

Eagles Of Death Metal, Secret Plans Tabs (ver.1)

Artists:  A B C D E F G H I J K L M N O P Q R S T U V W X Y Z # 

Secret Plans Tabs (ver.1)

Eagles Of Death Metal Tabs
Rating:
2/5 (2 votes)
Secret Plans lessons Tabs too difficult? Try these video lessons and learn fast
                -------------------------------------------------------------------------------
-------------------------------------------------------------------------------

Tuning: GGDGBD (Open G)

Intro & Verse 1

   (Jesse)
D|----------------------------------------------------------|
B|----------------------------------------------------------|
G|--3-3-3-3-3-3-3-3-3-3-3-3--5-5-5-5-5-5--6-6-6-6-6-6-6-----|
D|--3-3-5-3-3-5-3-3-5-3-3-5--5-5-7-5-5-7--6-6-8-6-6-8-8-----| x 8
G|--3-3-3-3-3-3-3-3-3-3-3-3--5-5-5-5-5-5--6-6-6-6-6-6-6-----|
G|--3-3-3-3-3-3-3-3-3-3-3-3--5-5-5-5-5-5--6-6-6-6-6-6-6-----|

At the start of each bar Dave Catching does something like this
strum the chord slowly so you get a staggard effect, 
then in the last two bars (Secret plans, midnight missions part)
he plays it 4 times a bar

   (Dave)
D|-----15-----------|------15-----15-----15-----15---|
B|----15------------|-----15-----15-----15-----15----|
G|---15------ x 6 --|----15-----15-----15-----15-----| x 2
D|--15--------------|---15-----15-----15-----15------|
G|------------------|--------------------------------|
G|------------------|--------------------------------|
                     (Secret plans midnight missions)
Chorus x 2

   (Jesse)
D|------------------------------|
B|------------------------------|
G|--3-3--5/6\5--6-6--8/10\8-----|
D|--3-3--5/6\5--6-6--8/10\8-----|
G|--3-3--5/6\5--6-6--8/10\8-----|D|---------------------------------|
G|--3-3--5/6\5--6-6--8/10\8-----|B|---------------------------------|
 |                              |G|--0-3-3-0-3-3-0-3-3-0-3-3-0-3----| 
 | (Dave)                       |D|--0-3-3-0-3-3-0-3-3-0-3-3-0-3----|
D|--3-3--5/6\5--6-6--8/10\8-----|G|--0-3-3-0-3-3-0-3-3-0-3-3-0-3----|
B|--3-3--5/6\5--6-6--8/10\8-----|G|--0-3-3-0-3-3-0-3-3-0-3-3-0-3----|
G|--3-3--5/6\5--6-6--8/10\8-----|  (I want what I want what I want 
D|--3-3--5/6\5  6-6--8/10\8-----|      what I want what I want)
G|------------------------------|
G|------------------------------|


Post Chorus

  (Jesse)
D|----------------------------------------------------------|
B|----------------------------------------------------------|
G|--3-3-3-3-3-3-3-3-3-3-3-3--5-5-5-5-5-5--6-6-6-6-6-6-6-----|
D|--3-3-5-3-3-5-3-3-5-3-3-5--5-5-7-5-5-7--6-6-8-6-6-8-8-----| 
G|--3-3-3-3-3-3-3-3-3-3-3-3--5-5-5-5-5-5--6-6-6-6-6-6-6-----|
G|--3-3-3-3-3-3-3-3-3-3-3-3--5-5-5-5-5-5--6-6-6-6-6-6-6-----|
 |                                                          |  x 3
 |                                                          |
D|-----15-----------------------18-----------14-------------|
B|----15-----------------------17-----------14--------------|
G|---15-----------------------15-----------15---------------|
D|--15-----------------------15-----------------------------|
G|----------------------------------------------------------|
G|----------------------------------------------------------|


 (Jesse)
D|----------------------------------------------------------|
B|----------------------------------------------------------|
G|--3-3-3-3-3-3-3-3-3-3-3-3--5-5-5-5-5-5--6-6-6-6-6-6-6-----|
D|--3-3-5-3-3-5-3-3-5-3-3-5--5-5-7-5-5-7--6-6-8-6-6-8-8-----| 
G|--3-3-3-3-3-3-3-3-3-3-3-3--5-5-5-5-5-5--6-6-6-6-6-6-6-----|
G|--3-3-3-3-3-3-3-3-3-3-3-3--5-5-5-5-5-5--6-6-6-6-6-6-6-----|
 |                                                          |  x 1
 | (Dave)                                                   |
D|-----------------15-------------15-----------15-----------|
B|----15----------15-------------15-----------15------------|
G|---15----------15-------------15-----------15-------------|
D|--15----------15-------------15-----------15--------------|
G|----------------------------------------------------------|
G|----------------------------------------------------------|

Verse 2

  (Jesse)
D|----------------------------------------------------------|
B|----------------------------------------------------------|
G|--3-3-3-3-3-3-3-3-3-3-3-3--5-5-5-5-5-5--6-6-6-6-6-6-6-----|
D|--3-3-5-3-3-5-3-3-5-3-3-5--5-5-7-5-5-7--6-6-8-6-6-8-8-----| x 4
G|--3-3-3-3-3-3-3-3-3-3-3-3--5-5-5-5-5-5--6-6-6-6-6-6-6-----|
G|--3-3-3-3-3-3-3-3-3-3-3-3--5-5-5-5-5-5--6-6-6-6-6-6-6-----|

  (Dave)
D|-----15-----------|------15-----18-----14-----15----|
B|----15------------|-----15-----17-----14-----15-----|
G|---15------ x 2 --|----15-----15-----15-----15------| x 2
D|--15--------------|---15-----15------------15-------|
G|------------------|---------------------------------|
G|------------------|---------------------------------|
                      (Secret plans midnight missions)

Chorus x 2

   (Jesse)
D|------------------------------|
B|------------------------------|
G|--3-3--5/6\5--6-6--8/10\8-----|
D|--3-3--5/6\5--6-6--8/10\8-----|
G|--3-3--5/6\5--6-6--8/10\8-----|D|---------------------------------|
G|--3-3--5/6\5--6-6--8/10\8-----|B|---------------------------------|
 |                              |G|--0-3-3-0-3-3-0-3-3-0-3-3-0-3----| 
 | (Dave)                       |D|--0-3-3-0-3-3-0-3-3-0-3-3-0-3----|
D|--3-3--5/6\5--6-6--8/10\8-----|G|--0-3-3-0-3-3-0-3-3-0-3-3-0-3----|
B|--3-3--5/6\5--6-6--8/10\8-----|G|--0-3-3-0-3-3-0-3-3-0-3-3-0-3----|
G|--3-3--5/6\5--6-6--8/10\8-----|  (I want what I want what I want 
D|--3-3--5/6\5  6-6--8/10\8-----|      what I want what I want)
G|------------------------------|
G|------------------------------|

Outro

   (Jesse)
D|------------------------------|
B|------------------------------|
G|--3-3--5/6\5--6-6--8/10\8-----|
D|--3-3--5/6\5--6-6--8/10\8-----|
G|--3-3--5/6\5--6-6--8/10\8-----|
G|--3-3--5/6\5--6-6--8/10\8-----|
 |                              |  x 4
 | (Dave)                       |
D|--3-3--5/6\5--6-6--8/10\8-----|
B|--3-3--5/6\5--6-6--8/10\8-----|
G|--3-3--5/6\5--6-6--8/10\8-----|  
D|--3-3--5/6\5  6-6--8/10\8-----|    
G|------------------------------|
G|------------------------------|

D|--------------------------|
B|--------------------------|
G|--0-3-3-0-3-3-0-3-3-0-3---| 
D|--0-3-3-0-3-3-0-3-3-0-3---|
G|--0-3-3-0-3-3-0-3-3-0-3---|
G|--0-3-3-0-3-3-0-3-3-0-3---|
   (I want what I want 
   what I want what I want)

Thats pretty much it! There are a few weird little fills 
through out but they are too hard to hear
anyways enjoy!



| /  slide up
| \  slide down
| h  hammer-on
| p  pull-off
| ~  vibrato
| +  harmonic
===============================================================================
            
Submit corrections

comments powered by Disqus
↑ Back to top | Eagles Of Death Metal Tabs for Secret Plans. Lyrics for acoustic guitar and electric guitar. Tablatures and chords are parodies/interpretations of the original songs. You may use it for private study, scholarship, research or language learning purposes only