» » »

I Want You Soo Hard Boys Bad News Tabs (ver.1)

Artists:  A B C D E F G H I J K L M N O P Q R S T U V W X Y Z # 

I Want You Soo Hard Boys Bad News Tabs (ver.1)

Eagles Of Death Metal
Rating:
5/5 (1 vote)

Tabs too difficult? Try these video lessons and learn fast.
                ---------------------------------------------------------------------------
       I Want You Soo Hard (Boy's Bad News) - Eagles Of Death Metal
----------------------------------------------------------------------------

Tuning: G G D G B D (dont know what this is classed as but everyone seems to think open 
so ill go with that)

capo on the 2nd fret, took the solo from a Guitar pro file that was uploaded by 
so thanks for that

1st tab ive done so please let me know what you think


Main Riff (rhythm)
d|------------------------------------|
B|------------------------------------|
G|--0-0-0-0-0--3--3-------------------|
D|--0-0-0-0-0--3--3-------------------| X8
G|--0-0-0-0-0--3--3-------------------|
G|--0-0-0-0-0--3--3-------------------|

  Main Riff (lead)
e|-----------------|
B|-----------------|
G|-2-2-2-2-2-5--5--|
D|-2-2-2-2-2-5--5--| x8
A|-0-0-0-0-0-3--3--|
E|-----------------|

 Chours (rhythm)
d|---------------------------------------|
B|---------------------------------------|
G|-5-5-5-5-5--3--3---5-5-5-5-5--3-3--0---|
D|-5-5-5-5-5--3--3---5-5-5-5-5--3-3--0---|
G|-5-5-5-5-5--3--3---5-5-5-5-5--3-3--0---|
G|-5-5-5-5-5--3--3---5-5-5-5-5--3-3--0---|

  Chorus (lead)
e|--------------------------------------|
B|--------------------------------------|
G|-7-7-7-7-7--5-5-----7-7-7-7-7--5--5-2-|
D|-7-7-7-7-7--5-5-----7-7-7-7-7--5--5-2-|
A|-5-5-5-5-5--3-3-----5-5-5-5-5--3--3-0-|
E|--------------------------------------|

Play this once then there is a drum fill then play it agian and theres another drum 
then you go back into the main riff


Play all of the above twice than the solo comes in which the rhythm guitar keeps playing 
main riff under the solo, although for the last 2 bars the rhythm guitar stops playing,

also just to be awkward lead guuitar is in standard as i think it sounds better but i 
be wrong and it may be in   G G D G B D

|---------------------------|
|---------------------------|
|---------------------------|
|---------------------------|
|-------5/12-12-12--12--12--|
|---------------------------|

|----------------------------------|
|----------------------------------|
|----------------------------------|
|----------------------------------|
|--12--12--12--15--15b--12--15--12-|
|--------12------------------------|

|----------------------------------|
|-----------------------------17---|
|----------17----17-19----17b------|
|------14--------------------------|
|--15------------------------------|
|----------------------------------|

|-------------------------------------|
|--------17---------------------------|
|--17br------17--17br-------14--14~---|
|-------------------------------------|
|-------------------------------------|
|-------------------------------------|

|-------------------------------|
|-------------------------------|
|------14---14br----14--14-14br-|
|-------------------------------|
|-------------------------------|
|-------------------------------|

|----------------------------------|
|-------------------------17-------|
|-----14--14-14-14--18br-----------|
|----------------------------------|
|----------------------------------|
|----------------------------------|


|----------------------------------------|
|----------------------------------------|
|--18br---14-----------------------------|
|---------------17-----18br----14--17-17-|
|-------------------0--------------------|
|----------------------------------------|

|----------------------------------|
|----------------------------------|
|--------------14--17--14--17--17--|
|--17--14--17----------------------|
|----------------------------------|
|----------------------------------|

|------------------------------------|
|------------------------------------|
|--17--14---------17--14---------17--|
|----------17--x----------17--14-----|
|------------------------------------|
|------------------------------------|

|-------------------------------------|
|-------------------------------------|
|--17--14----------17--14-------------|
|----------17---x----------17--14-----|
|-------------------------------------|
|-------------------------------------|

|-----------------------------------------|
|-----------------------------------------|
|--17--14------14-17-17-18--17-14-17--14--|
|----------17-----------------------------|
|-----------------------------------------|
|-----------------------------------------|

|----------------------------------------------------|
|--17-18----17-18--17-18--17-18pb--------14-17--14---|
|----------------------------------------------------|
|----------------------------------------------------|
|----------------------------------------------------|

|------------------------------------------------------------|
|----------18------------------------------------------------|
|--17-18-------17b--17-19pb---14--17--14---------------------|
|------------------------------------------------------------|
|------------------------------------------------------------|
|------------------------------------------------------------|

|------------------------------------------------------|
|------------------------------------------------------|
|--17--14b-----17br----14--17--17----------------------|
|------------------------------------------------------|
|------------------------------------------------------|
|------------------------------------------------------|

|---------------------------------------|
|---------------------------------------|
|--17--17-14----------------------------|
|------------17--14-14-17~----17--17-17-|
|---------------------------------------|
|---------------------------------------|

|----------------------------------------|
|----------------------------------------|
|----------------------------------------|
|--17~----17--17-17-17p-15-15h-17--------|
|----------------------------------------|
|---------------------------------14\----|

After the solo has finished play the main riff 8 times then the chours and then

the rhythm guitar plays the main riff 14 time while the lead plays the part below,tuning 
have to hold the 1st chord for 1 bar before hitting the 2nd one

|--------------------|
|--------------------|
|--------------------|
|--7---------7-------|
|--6---------7-------|
|--5---------5-------|

| /  slide up
| \  slide down
| h  hammer-on
| p  pull-off
| ~  vibrato
| +  harmonic
| x  Mute note
| b  bend note
| r   release note
============================================================================
            
Tabs too difficult? Try these video lessons and learn fast.


comments powered by Disqus
↑ Back to top | Tablatures and chords are parodies/interpretations of the original songs. You may use it for private study, scholarship, research or language learning purposes only