» » »

Eagles Of Death Metal, I Like To Move In The Night Bass tabs (ver.1)

Artists:  A B C D E F G H I J K L M N O P Q R S T U V W X Y Z # 

I Like To Move In The Night Bass tabs (ver.1)

Eagles Of Death Metal Tabs
 Rating:
3.4/5 (5 votes)
I Like To Move In The Night lessons Tabs too difficult? Try these video lessons and learn fast
1
                EODM
I like to move

I love the Eagles of Death Metal! Enjoy the next few minutes!

Intro
G:---------------------------------------------------------------------|
D:--------14----14-----------------------------------------------------|
A:-101010----13----131210101013131313131315151515----------------------|
E:---------------------------------------------------------------------|

Strophe
G:---------------------------------------------------------------------|
D:---------------------------------------------------------------------|
A:-10-1010101010-1010101010-1010/-131313131313/-151515151515/-10-------|
E:---------------------------------------------------------------------|

Refrain
G:----------------------------------------------------------------------|
D:-----------14----14---------------------------------------------------|
A:-10-101010----13----1312101010-131313131313-15151515/10---------------|
E:----------------------------------------------------------------------|

Refrain Variation on the end
G:----------------------------------------------15----------------------|
D:-------------------------------------------17----17-15----------------|
A:--------------------------------1313131313----------------------------|
E:----------------------------------------------------------------------|

A little tip: Much BASS and Much DISTROIE that is sound like EODM
            
Submit corrections

comments powered by Disqus
↑ Back to top | Eagles Of Death Metal Bass for I Like To Move In The Night. Lyrics for acoustic guitar and electric guitar. 1 Tablatures and chords are parodies/interpretations of the original songs. You may use it for private study, scholarship, research or language learning purposes only