>
 >
Cheap Thrills 1

Cheap Thrills 1 Guitar Tabs

Eagles Of Death Metal - Cheap Thrills 1 chords, tabs, tablatures, lyrics

Guitar lessons | Add/correct | Request | Top 50 tabs Artists:  A B C D E F G H I J K L M N O P Q R S T U V W X Y Z 0-9

Cheap Thrills 1 Guitar Tabs – Eagles Of Death Metal

CD, Sheet music, Poster

Do you like Cheap Thrills 1? Share with your friends now
TabsTabs v2
Eagles of Death Metal - Cheap Thrills
Tuning: Open G GGDGBD

Lot's of fuzz on this one.
Most of it is here. There are still bits I am working on,
that I am not happy with yet.
 
PM any questions/corrections thanks, rate please.

KEY
x  - mute
b  - bend
r  - release
qb - quick bend
pb - pre-bend

#Intro
Guitar 1
d|-----------------------------------------------------------|
B|------7/8-8\7/8/11-11\7\6------------7/8-8\7/8/10-11-13-13-|
G|-----------------------------------------------------------|
D|-----------------------------------------------------------|
G|-----------------------------------------------------------|
G|-----------------------------------------------------------|

d|-----------------------------------------------------------|
B|------7/8-8\7/8-11\10-4/10---10\6h7--7/8-8\7/8/10-11-11-10-|
G|-----------------------------------------------------------|
D|-----------------------------------------------------------|
G|-----------------------------------------------------------|
G|-----------------------------------------------------------|

#Main Riff
Guitar 1&2
d|-7-7-x7--7-7/10-10-10-10-------------|
B|-7-10x10-7-7/10-14-14-10-----5-5/7---|:
G|-7-7-x7--7-7/10-12-12-10-----5-5/7---|
D|-7-9-x9--7-7/10-12-12-10-----5-5/7---|
G|-7-7-x7--7-7/10-10-10-10-----5-5/7---|:
G|-------------------------------------|x4

#Bridge
Guitar 1
d|10-10-12-12--12---|
B|------------------|:
G|------------------|
D|------------------|
G|------------------|:
G|------------------|x4
Guitar 2
d|------------------|
B|-5--5/7-7----7----|:
G|-5--5/7-7----7----|
D|-5--5/7-7----7----|
G|-5--5/7-7----7----|:
G|------------------|x4

#Cheap Thrills Riff
Guitar 1 (Still working on this)
Guitar 2
d|-7-7x7-7-7--3x3-3-3/5x5-5-5/|
B|-7-7x7-7-7--3x3-3-3/5x5-5-5/|:
G|-7-9x9-7-7--3x3-5-3/5x5-7-5/|
D|-7-7x7-7-7--3x3-3-3/5x5-5-5/|
G|-7-7x7-7-7--3x3-3-3/5x5-5-5/|:
G|----------------------------|

#Bridge

#Main Riff

#Pre-Solo (Still Working on this)

#Solo
Guitar 1 - (Guitar 2 plays Main Riff)
d|----------------------------------------------|
B|----------------------------------------------|
G|----------------------------------------------|
D|----------------------------------------------|
G|~~~7-7-7-7-7/14-14-14/21~~~~21\14\7-7\5-5-5-5-|
G|----------------------------------------------|

d|---------------------------------------------------------------|
B|---------------------------------------------------------------|
G|---------------------------------------------------------------|
D|---------------------------------------------------------------|
G|-14\7-7-7/14-14-14-21-14-14-14-14\12-12-12\9-9-9-9\7-7-7\5-5-5-|
G|---------------------------------------------------------------|

d|--------------------------------------------------------------------|
B|--------------------------------------------------------------------|
G|14b15b14~~14-12-14/19-19-19-19/21-21-21-21b23-21b23-21b23r21-19-19~-|
D|--------------------------------------------------------------------|
G|--------------------------------------------------------------------|
G|--------------------------------------------------------------------|

d|------------------------------|
B|----10-12-12-10b--------------|
G|-19\10-12-12-10b-12qb13 12~---|
D|------------------------------|
G|------------------------------|
G|------------------------------|

d|-------------------------------------------------------------|
B|-------------------------------------------------------------|
G|-12b14--12b14r-12-10-12qb14xpb14r12-10-10\19~~-21\17-17-17~~\|
D|-------------------------------------------------------------|
G|-------------------------------------------------------------|
G|-------------------------------------------------------------|

d|-------------------------------------------------------------|
B|-------------------------------------------------------------|
G|-------------------------------------------------------------|
D|-14b15r14-12\9-14b15hr14-12-14b15r14-12\9/12-14b15r14p12\19~-|
G|-------------------------------------------------------------|
G|-------------------------------------------------------------|

#Main Riff

#Cheap Thrills Ending





Comments


Popular Eagles Of Death Metal tabs & chords
Now I'm A Fool Chords
San Berdoo Sunburn Chords
Addicted To Love Tabs
I Gotta Feeling Just Nineteen Tabs
I Only Want You 2 Tabs
I Want You So Hard Boys Bad News 3 Tabs
San Berdoo Sunburn Tabs
So Easy 1 Tabs
Wanna Be In La 1 Tabs
Flames Go Higher Ukulele


Song lyrics



↑ Back to top | Tablatures and chords are parodies/interpretations of the original songs. You may use it for private study, scholarship, research or language learning purposes only
© 2014 AZChords.com Contact us | Privacy policy | DMCA | Add/correct tabs | Request tabs | Top 50 tabs