» » »

Cheap Thrills Tabs (ver.1)

Artists:  A B C D E F G H I J K L M N O P Q R S T U V W X Y Z # 

Cheap Thrills Tabs (ver.1)

Eagles Of Death Metal
Rating:
3/5 (1 vote)

Hard to play? Try these video lessons and learn fast.
                First off, this song is played with some effects that are hard to mimic but, by my 
these are the correct tabs:

many frets).

Intro: (0:00-0:17)
E|-------------------------------------------------------------|
B|-------7/8-8\7/8/10-11\10\9------------7/8-8\7/8/10-11-13-13-|
G|-7/9-9----------------------10--7-9-7------------------------|
D|-------------------------------------------------------------|
A|-------------------------------------------------------------|
E|-------------------------------------------------------------|

E|--------------------------------------------------------------|
B|-------7/8-8\7/8-11\10-6/9------7--7/8-8\7/8/10-11-11-10~-----|
G|-7-9-7----------------------7-9-------------------------------|
D|--------------------------------------------------------------|
A|--------------------------------------------------------------|
E|--------------------------------------------------------------|

Pre-verse: (0:17-0:35)
First guitar
E|-7-7-7-7-7/10-10-10-10-------------|
B|-7-8-8-7-8/11-11-11-10-------------|
G|-7-7-7-7-7/10-10-10-10-------------|
D|-7-9-9-9-9/12-12-12-12-------------| x4
A|-7-7-7-7-7/10-10-10-10-------------|
E|-----------------------------------|

Second guitar
E|-----------------------------------|
B|-----------------------------------|
G|-----------------------------------|
D|------------------------10-1212-12-| x3
A|------------------------10-1212-12-|
E|------------------------8--1010-10-|

Bridge: (0:35-0:42)
First guitar
E|----------------|
B|-11-11-13-13-13-|
G|----------------|
D|----------------| x4
A|----------------|
E|----------------|

Second Guitar
E|----------------|
B|----------------|
G|----------------|
D|-10-10-12-12-12-| x4
A|-10-10-12-12-12-|
E|-8--8--10-10-10-|

Verse 1: (0:42-1:00)
One guitar
E|------|-----------------------------------|
B|------|-----------------------------------|
G|------|-----------------------------------|
D|------|-12-12--12\8-8--8-8/10-10-10-10/12-|
A|------|-12-12--12\8-8--8-8/10-10-10-10/12-|
E|-5\10-|-10-10--10\6-6--6-6/8---8--8--8/10-|

Repeat Bridge (1:00-1:08)

Verse 2: Repeat Pre-Verse (1:08-1:26)

Bridge 2: Haven't gotten round to tabbing this part yet. (1:26-2:00)

Solo: (2:00-2:41-------------------------------------------------|- Second guitar
E|---------------------------------------------------------------| playing Pre-Verse riff.
B|---------------------------------------------------------------|
G|---------------------------------------------------------------|
D|---------------------------------------------------------------|
A|-5-5-5-5\12-12-12\19-19-19-12\5-5-5\3-3-3-3-12\5-5-5\12-12-12--|
E|---------------------------------------------------------------|

E|---------------------------------------------|
B|---------------------------------------------|
G|---------------------------------------------|
D|---------------------------------------------|
A|-19-12-12-12-12\10-10-10\7-7-7-7\5-5-5\3-3-3-|
E|---------------------------------------------|

E|----------------------------------------------------------------|
B|----------------------------------------------------------------|
G|-14b16b14-14-12-14\19-19-19-21-21-21-23-23-23\19-17-17\10-12-14-|
D|----------------------------------------------------------------|
A|----------------------------------------------------------------|
E|----------------------------------------------------------------|

E|-------------------------------------------------------|
B|----------------10-------------------------------------|
G|-12-14-12-10-12----12-10-10\19-19-19-19-21-17-17-17-17-|
D|-------------------------------------------------------|
A|-------------------------------------------------------|
E|-------------------------------------------------------|

E|----------------------------------------------------|
B|----------------------------------------------------|
G|----------------------------------------------------|
D|-14b-14\12-10-14b-14b-12-12-14b-12----12-14b-12\19~-|
A|-----------------------------------14---------------|
E|----------------------------------------------------|

Verse 3: Repeat Pre-Verse (2:41-3:00)

Outro: Repeat Verse 1 (3:00-3:42)
            
Hard to play? Try these video lessons and learn fast. | Correct




comments powered by Disqus
↑ Back to top | Tablatures and chords are parodies/interpretations of the original songs. You may use it for private study, scholarship, research or language learning purposes only