» » »

Bag O Miracles Chords (ver.1)

Artists:  A B C D E F G H I J K L M N O P Q R S T U V W X Y Z # 

Bag O Miracles Chords (ver.1)

Eagles Of Death Metal
Rating:
0/5 (0 votes)

Hard to play? Try these video lessons and learn fast.
                
Intro
e|------------------------------------------------|
B|------------------------------------5-6-5-3-----|
G|---------2-4-44-----------2-4/5-5-2-------------|
D|-0-000-3--------33-0--0-3-----------------------|
A|------------------------------------------------|
E|------------------------------------------------|

e|------------------------------------------------|
B|------------------------------------------------|
G|--2-2-4b---------2-4--2-44----------------2-4---|
D|---------3-00-33------------33-0-00-3p0h3-------|
A|------------------------------------------------|
E|------------------------------------------------|


e|------------------------------------------------|
B|--3-5--3h5/6--6-5-3-/5\3-0-3--------------------|
G|---------------------------2--------------------|
D|------------------------------------------------|
A|------------------------------------------------|
E|------------------------------------------------|

I tabbed out the beggining of the broken chords, but I couldn't get the rest so I
just put the chords in.

e|---2---2-3p2---2---2--3p2---3---3-2-------------|
B|------------------------------------------------|
G|---2-2---2---2---2----2---2---2-----0-33--------|
D|-0----------------------------------------------|
A|------------------------------------------------|
E|------------------------------------------------|

D                                                                  G
Oh yes I got me some trouble lord because I changed one more Nun's name,
          A
Oh yes I feel so sad and lonesome,
                                 D
Words will dress me all up in shame,
D                                                                      G
Just like the good lord walk the water so long ago on the sea of gallilee,
         A                                                               D
I need a big ol' Bag O' miracles come and lift that woman right off of me.

Amen    D G A D

D                                                                  G
Oh yes I got me some trouble lord because I changed one more Nun's name,
         A                                                             D
Well, I feel so sad and lonesome, words will dress me up all up in shame,
D                                                                             G
Just like the good lord Jesus walk the water so long ago on the sea of gallilee,
            A
I need me a big ol' Bag O' miracles come and lift that woman right off of me.

Finish on:
e|----5-------------------------------------------|
B|---3--------------------------------------------|
G|--2---------------------------------------------|
D|-0----------------------------------------------|
A|------------------------------------------------|
E|------------------------------------------------|

The lyrics are most definetly not all correct, so if you know them please tell me so I 
change them, thank you very much.
Love this song so much it be my ringtone haha, Eagles of Death Metal, praise the Lord.
            
Hard to play? Try these video lessons and learn fast. | Correct




comments powered by Disqus
↑ Back to top | Tablatures and chords are parodies/interpretations of the original songs. You may use it for private study, scholarship, research or language learning purposes only