» » »

Eagles, Visions Tabs (ver.1)

Artists:  A B C D E F G H I J K L M N O P Q R S T U V W X Y Z # 

Visions Tabs (ver.1)

Eagles Tabs
 Rating:
4/5 (4 votes)
Visions lessons Tabs too difficult? Try these video lessons and learn fast
                intro chords: 
e	:|----5----3---------------------
B	:|----5----3----7----5----------
G	:|----6----4----7----5----------  2x
D	:|----7----5----7----5----------
A	:|----7----5----5----3----------
E	:|----5----3----x----x----------
	        A      G     D     C

refrain riff:
e	:|--------------------|------x--x--x--x--------------|-------------------------------|
B	:|---------------4----|--9--9--x--x--x--x--9--9---|--------------------------------|
G	:|----7----5----4----|--9--9--x--x--x--x--9--9---|--------------------------------|
D	:|----7----5----4----|--9--9----------------9--9--|---4--4--6--6--4--4--6--6---|
A	:|----7----5----2----|--7--7----------------7--7--|---2--2--2--2--2--2--2--2---|
E	:|----5----3---------|------------------------------|---------------------------------|
	        A      G     B    | on 1st & 3rd repeat           |on 2nd repeat

on 4th repeath follows either a solo or riff 1

riff 1 : something on G string 2nd fret with lots of hammer ons and pull offs

solo1:
e	:|------------------------------------------------------------------------------
B	:|--------------------------------------------------------------7---9b11-----
G	:|-------------------7----5---------------------------------------------------- repeat with
D	:|----7-h-5-p-7--------------7-------5--7--5--------------------------------variations
A	:|--------------------------------------------------7---5----------------------
E	:|------------------------------------------------------------------------------


solo 2:
e	:|------------------------------------------------------------------------------------------------
B	:|---10b12r10------10---8--------------------------------------------------------------------
G	:|------------------------------10---8---10-----8--------------8---10b12r-b-r-b-r-b-r-b-r--
D	:|----------------------------------------------------10---10-----------------------------------
A	:|------------------------------------------------------------------------------------------------
E	:|------------------------------------------------------------------------------------------------

e	:|------------------------------------------------------------------------------------------------
B	:|------------------------------------------------------------------------------------------------
G	:|-------12b15---12---10---------------------------------------------------------------------
D	:|---8-----------------------12--10--10--10----------10-------------------------------------
A	:|----------------------------------------------12--12------10---8----------------------------
E	:|----------------------------------------------------------------------10---8(let ring)--------

at 3m10s   something like this which is repeated a few times

e	:|---------------------------------------------------------------------------------------------------
B	:|---------10-----10---------------10--------8-------------8----------6------------6-----5-----
G	:|---12-----------12b14-------12----12-----10b12----10--10------8b10------8-------7b9---


song ends:

e	:|----------------------------------------------------------------------------------------------------
B	:|------10---------10------8---------8-------6--------8----------8------6-------6-------5---------
G	:|------12b14-------------10b12------------8b10----10b12------------8b10-----------7b9------


e	:|-------------------------------------
B	:|-------------------------------------
G	:|------------------------------5------
D	:|-----------------4---6---7----------
A	:|----4---5---7-----------------------
E	:|-------------------------------------
            
Submit corrections

comments powered by Disqus
↑ Back to top | Eagles Tabs for Visions. Lyrics for acoustic guitar and electric guitar. Tablatures and chords are parodies/interpretations of the original songs. You may use it for private study, scholarship, research or language learning purposes only