» » »

Tequila Sunrise Bass tabs (ver.2)

Artists:  A B C D E F G H I J K L M N O P Q R S T U V W X Y Z # 

Tequila Sunrise Bass tabs (ver.2)

Eagles
Rating:
0/5 (0 votes)

Hard to play? Try these video lessons and learn fast.
                Tequila Sunrise  - Eagles 
Bass Tabs by Bruno Frenchy

Tuning: Standard

Intro 00:09
G|------------------------------------------|-
D|------------------------------------------|-
A|--------7--5--5-7-5-----------5------5/5--|-
E|-3/5--5-------------7-5-3L--3---3--3-----3|-
      
                                                               
Verse 1 00:18
G|-------------------------------------------------------------------|-
D|-------------------7------7----------------------------------------|-
A|----5-----5/-/5--5---5--5--5-----7-5--5-7-5-----------5------5/5---|-
E|--3---3--3------------------5--5------------7-5-3L--3---3--3-----3-|-
    It’s another Tequila Sunrise 
    Staring slowly ‘cross the sky     
    I said goodbye...                      
G|----------------------------------------------------------------------|-
D|-------------------7------7-------------------------------------------|-
A|----5-----5/-/5--5---5--5--5-------7-5--5-7-5-----------5------5/5----|-
E|--3---3--3------------------7/5--5------------7-5-3L--3---3--3----(7)-|-
    He was just a hired hand   
    Working on the dreams he planned to try  
    The days go by...


Chorus 00:52
G|---------------------------------------------------------------------|
D|-------------5----------------5--------------------7-----------------|
A|-7-77-3--3/7---7--7-77-3--3/7---7--7-77-----7-5--5---5--5-7-5--------|
E|----------------------------------------5--5------------------7-5-3L-|
    Every night when the sun goes down   
    Just another lonely boy in town  
    She’s out running ‘round

      
Verse 2 01:10
G|-------------------------------------------------------------------|-
D|------------------7-------7----------------------------------------|-
A|---5----5/-/5--5-5---5--5--5-----7-5--5-7-5------------5-----5/5---|-
E|-3--3--3--------------------5--5-------------7-5-3L--3--3--3-----3-|-
   She wasn’t just another woman
   And I couldn’t keep from coming on
   It’s been so long... 
G|---------------------------------------------------------------------|-
D|-------------------7------7------------------------------------------|-
A|----5-----5/-/5--5---5--5--5-------7-5--5-7-5-----------5------5/5---|-
E|--3---3--3------------------7/5--5------------7-5-3L--3---3--3-----3-|-
    Oh, and it’s a hollow feeling
    When it comes down to dealing friends
    It never ends...

Bridge 01:43
G|------------------------------------------------------------------------|-
D|-----------------------7-----7------------------------------------------|-
A|--5-----5/5-----5--5--5--5--5--5-------7-5--5-7-5-----------5-----5/5---|-
E|-3--3--3---3--3------------------7/5--5-----------7-5-3L--3---3--3---(5)|-


Riff 02:02
G|-------------------------------------------------------|-
D|-------------------------------------------------------|-
A|------5-55--2-22------------2-22---------5-7-5---------|-
E|-5-55------------0-00--5-55------0-00--5-------7-5-3L--|-
  Take another shot of courage
  Wonder why the right words never come
  You just get numb... 

Final Verse 
G|---------------------------------------------------------------------|-
D|-------------------7------7------------------------------------------|-
A|----5-----5/-/5--5---5--5--5-------7-5--5-7-5-----------5------5/5---|-
E|--3---3--3------------------7/5--5------------7-5-3L--3---3--3-----3-|-
   It,s another Tequila Sunrise
   This old world still looks the same
   Another frame...


Repeat til the end...
G|---------------  --------|
D|---------------  --------|
A|-----5-----55--  --------|
E|--3-3--3-3-----  -3L-----|

02:48


Index

| ( )leading to
| /  slide up
| \  slide down
| h  hammer-on
| p  pull-off
| ~  vibrato
| +  harmonic
| x  Mute note
            
Hard to play? Try these video lessons and learn fast. | Correct




comments powered by Disqus
↑ Back to top | Tablatures and chords are parodies/interpretations of the original songs. You may use it for private study, scholarship, research or language learning purposes only