» » »

Eagles, Tequila Sunrise Bass tabs (ver.1)

Artists:  A B C D E F G H I J K L M N O P Q R S T U V W X Y Z # 

Tequila Sunrise Bass tabs (ver.1)

Eagles Tabs
 Rating:
4/5 (4 votes)
Tequila Sunrise lessons Tabs too difficult? Try these video lessons and learn fast
1
                -------------------------------------------------------------------------------
			     Tequila Sunrise - The Eagles
-------------------------------------------------------------------------------


Tuning: Standard

G|--------------------------------------------------------------------------|
D|--------------------------------------------------------------------------|
A|--------7-75-5750---5----/5/5---------------------------------------------|
E|--3/5-5----------3-3--3-3-------------------------------------------------|
Intro
G|--------------------------------------------------------------------------|
D|--------------------------------------------------------------------------|
A|-----5----5-5-5--5-5------7-75-5750---5----5-5--repeat--------------------|
E|--3-3--3-3-----5----5-5-5----------3-3--3-3-------------------------------|
Verse
G|--------------------------------------------------------------------------|
D|--------------------------------------------------------------------------|
A|---7-77-3-----5-7-77-3-----5-7-77------5-55-5-5750---back to verse 1------|
E|----------35/7---------35/7-------5-55------------------------------------|
Verse 2
G|--------------------------------------------------------------------------|
D|--------------------------------------------------------------------------|
A|-------5-55-2-22-----------2-22--------5757-back to verse-----------------|
E|--5-55-----------0-00-5-55------0-00-5------------------------------------|
Bridge
G|--------------------------------------------------------------------------|
D|--------------------------------------------------------------------------|
A|-----5-----55 to end------------------------------------------------------|
E|--3-3--3-3-----------3----------------------------------------------------|
Ending



| /  slide up
| \  slide down
| h  hammer-on
| p  pull-off
| ~  vibrato
| +  harmonic
| x  Mute note
===========================================================================
            
Submit corrections

comments powered by Disqus
↑ Back to top | Eagles Bass for Tequila Sunrise. Lyrics for acoustic guitar and electric guitar. 1 Tablatures and chords are parodies/interpretations of the original songs. You may use it for private study, scholarship, research or language learning purposes only