» » »

Teenage Jail Tabs (ver.1)

Artists:  A B C D E F G H I J K L M N O P Q R S T U V W X Y Z # 

Teenage Jail Tabs (ver.1)

Eagles
Rating:
0/5 (0 votes)

Tabs too difficult? Try these video lessons and learn fast.
                Standard Tuning

Main Riff
------------------
------------------
------------------
------------------
------------------
---0--7--9/10-----
Repeat quite a few times

Chorus
------------------
------------------
------------------
-7--5--2----------
-7--5--2----------
-5--3--0----------
Repeat 4 times

I cant figure out the solo yet cuz i've only been playin about 4 months
so any suggestions are welcome.  If you can help with the solo
put the subject as tab corrections.
            
Tabs too difficult? Try these video lessons and learn fast.




comments powered by Disqus
↑ Back to top | Tablatures and chords are parodies/interpretations of the original songs. You may use it for private study, scholarship, research or language learning purposes only